Song name
# A B C D E F G H I J K L M N O P Q R S T U V W X Y Z

Misc Soundtrack - Rock On - Yeh Tumhari Meri Baatein chords

Highlighted       Show chord diagrams
Yeh Tumhaari Meri Baatein
From the hindi movie Rock on!!


By Sanjeev George and Thomas George
Contact at SanjeevGeorge123@yahoo.co.in


This riff is played throughout the song
e|-------1p0-----------------------------|
B|-----------3p1---3---1---3-------------|
G|-----0---------0-----------------------|
D|---------------------------------------|
A|---3---------------3---3---------------|
E|---------------------------------------|

Verse: play the riff

Riff
ye tumhari meri baatein
hamesha yun hi chalti rahe
ye hamari mulakaate
hamesha yun hi chalti rahe
G             F           Riff
beete yun hi apne saare din raat
  G            F             Riff
baaton se nikalti rahe nayi baat
Riff
phir wahi baatein leke
geet koi hum likhe
jo dil ko haan
sab ke dil ko chhoo le
baatein suron mein
yun hi pighalti rahe
  G          F
baatein geeton mein
Riff
yun hi dhalti rahe
G            F    
geeton mein ye haan
Riff
humko khushiyon se hum saja de
jo sune kahe wo hum se gaao na

ye tumhari meri baatein
hamesha yun hi chalti rahe
ye hamari mulakaate
hamesha yun hi chalti rahe
  G            F              Riff
beete yun hi apne saare din raat
 G             F              Riff
baaton se nikalti rahe nayi baat
phir wahi baatein
leke geet koi hum likhe
jo dil ko haan
sab ke dil ko chhoo le
baatein suron mein
yun hi pighalti rahe
baatein geeton mein
yun hi dhalti rahe
Bridge (OOoo.oooooo) Bb  Am  C  Am  F#  Am (All bar chords)

Riff till the end

In the end ,add this
e|----1-3---1--------------|
B|--3-----3---3------------|
G|-------------------------|
D|-------------------------|
A|-------------------------|
E|-------------------------|

Tap to rate this tab
# A B C D E F G H I J K L M N O P Q R S T U V W X Y Z