Song name
# A B C D E F G H I J K L M N O P Q R S T U V W X Y Z

Misc Soundtrack - Lock Stock And Two Smoking Barrels Theme tab

Lock Stock and Two Smoking Barrels

I just tabbed the riffs heard throughout the movie

Bass Riff
|----------------------|
|4-444-44--------------|
|---------55-5555------|
|----------------------|

Guitar Riff (heavy distortion)
ocassionally this riff will chage to the key of D.
|-----------------------------------------|
|-----------------------------------------|
|------------------------6---------5------|
|----2---------5-------6---(0)---5---(0)--|
|--2---(0)---5---(0)-4---------3----------|
|0---------3------------------------------|

Hope you enjoy.
Tap to rate this tab
 
# A B C D E F G H I J K L M N O P Q R S T U V W X Y Z