Song name
# A B C D E F G H I J K L M N O P Q R S T U V W X Y Z

Misc Soundtrack - Star Wars - Imperial March tab

e----------------------|
b----------------------|
g-0--0--0----3-0---3-0-|
d----------1-----1-----|
a----------------------|
e----------------------|

e----------------------|
b-3--3--3--4-----------|
g------------3-----3-0-|
d--------------4-1-----|
a----------------------|
e----------------------|

e||--3-------3--2--1-0---0----------------------|
b||.-------------------4-----2--1-0-------------|
g||-----0--0---------------1--------3-2-3-------|
d||-----------------------------------------1-4-|
a||.--------------------------------------------|
e||---------------------------------------------|

  ______________   _______________
 | 1              | 2
e---------------||----------------|
b------------3-.||----------------|
g-----3--0-3----||-3--3-0--3--3-0-|
d-1-4-----------||-1-------1------|
a--------------.||----------------|
e---------------||----------------|
Tap to rate this tab
 
# A B C D E F G H I J K L M N O P Q R S T U V W X Y Z