Song name
# A B C D E F G H I J K L M N O P Q R S T U V W X Y Z

Misc Soundtrack - Idas Sommarvisa Theme tab

-------------------------------------------------------------------------------
			     SONG NAME - Band Name
-------------------------------------------------------------------------------
Tabbed by:AzpirE^
Email:Azpire@live.se

Tuning:Standard

e|------------0-2-3-2-0-------------0----------------------------------------|
B|---3-3-3-3------------3-2-2-2-2-3---3--------------------------------------|
G|-2-------------------------------------------------------------------------|
D|---------------------------------------------------------------------------|
A|---------------------------------------------------------------------------|
E|---------------------------------------------------------------------------|

e|-------------0-2-3-2-0-------------0---------------------------------------|
B|----3-3-3-3------------3-2-2-2-2-3---3-------------------------------------|
G|--2------------------------------------------------------------------------|
D|---------------------------------------------------------------------------|
A|---------------------------------------------------------------------------|
E|---------------------------------------------------------------------------|

e|-2-5-2-2-5-2-2-3-5-7-----------5-3-2-------------0-------------------------|
B|---------------------7-5-5-5-5-------3-2-2-2-2-3---3-----------------------|
G|---------------------------------------------------------------------------|
D|---------------------------------------------------------------------------|
A|---------------------------------------------------------------------------|
E|---------------------------------------------------------------------------|



===============================================================================
Tap to rate this tab
 
# A B C D E F G H I J K L M N O P Q R S T U V W X Y Z