Song name
# A B C D E F G H I J K L M N O P Q R S T U V W X Y Z

Misc Soundtrack - Lord Of The Rings Theme tab

The Lord Of The Rings
Composed by Howard Shore

Tuning D A D G B E

e|-----------|-----------------|--------|---------------------|
B|-----------|-----------------|--------|---------------------|
G|--------5--|-----------------|---5--7-|-10-9----------------|
D|-3-5-7-----|----5h7p5--3-----|-7----0-|-8----10--7-8p7-5----| x2
A|-3---------|-------------3---|-0----0-|-8--------8-----3----|
D|-3---------|-3-------------3-|-0----0-|-8-------------------|

e|----------|----------|-----------|--------------|--------|----------|
B|----------|----------|-----------|--------------|--------|----------|
G|----------|----------|-----------|--5-----------|--------|----------|
D|-3--5--7--|--7--8s5--|--3--5--7--|-----7--5--3--|--7--5--|-3--5--7--|
A|-------0--|-------3--|--------0--|-----------3--|-----3--|-------0--|
D|-------0--|----------|--------0--|-----------3--|--------|-------0--|

e|----------|---------------|------|----|---|----|
B|----------|---------------|------|----|---|----|
G|-------5--|-7----9----10--|--12--|-10-|-8-|-10-|
D|-----7----|-0----0----8---|--8---|-10-|-6-|-10-|
A|-s8-------|-0----0----8---|--8---|-8--|-6-|-8--|
D|----------|-0----0----8---|--8---|----|-6-|----|

e|-------|-------|--------|---|-----|---|---|-------|-------|-----|-----|
B|-------|-------|--------|---|-----|---|---|-------|-------|-----|-----|
G|-3h5-6-|-5s3---|--------|---|-----|---|---|-3h5-6-|-5h6-8-|-7-8-|-10--|
D|-----6-|-----6-|-8s10-8-|-6-|-5-3-|-1-|-3-|-----6-|-----6-|-----|-8---|
A|-----4-|-----6-|------8-|-6-|---3-|-1-|-3-|-----4-|-----6-|-----|-8---|
D|-------|-----6-|------8-|-6-|---3-|-1-|-3-|-------|-----6-|-----|-8---|

| /  slide up
| \  slide down
| h  hammer-on
| p  pull-off
| ~  vibrato
| +  harmonic
| x  Mute note
===============================================================================
Tap to rate this tab
 
# A B C D E F G H I J K L M N O P Q R S T U V W X Y Z