Song name
# A B C D E F G H I J K L M N O P Q R S T U V W X Y Z

Misc Soundtrack - Notting Hill - The Smile On Your Face tab

This is the tab for Paul Brant, Alison Krauss, Ronan Keating haha... yes they all sing 
song but paul made the soundtrack for the movie and its my favorite version this is the 
i play it and sing it! good luck & enjoy!

Intro. Verse 1.
e|--------------2-3----------------2-2p3-----|
B|-----3--------3-3-------3--------3-3-------|
G|-------0-----2-----------0-----2-----------|
D|----------0----------2------0--------------|
A|---2---------------3-----------------------|
E|-3-----------------------------------------|x6

e|-------0-------3--------2-------0-----------0------|
B|-------1-------3------3-----3-----3-----3-----3----|
G|-----0-------0------2---------0-----0-----0-----0--|
D|---2--------------0--------------------------------|
A|-3---------2--------------3-----------3------------|
E|---------3-----------------------------------------|

-> Verse 1. Lyrics.

It's amazing how you can speak right to my heart
Without saying a word you can light up the dark
Try as I may I could never explain
What I hear when you don't say a thing

-> Chorus.

 G                              D
The smile on your face, let me knows that you need me
            C                              D
There's a truth in your eyes, Saying you'll never leave me
      G                D                    C             D
The Touch of your hand, says you'll catch me if i ever fall
     G       D          Cadd9           D
You Say its best, when its nothing at all.

-> The 2nd Verse its pretty much the same as the first one.

Verse 2 . Lyrics

All day long I can hear people talking at loud
But when you hold me near
you drown out the crowd
Old Mr. Webster could never define
What's been said between your heart and mine

And then the Chorus twice.

Check the songs from this movie soundtrack you might like them!
Tap to rate this tab
 
# A B C D E F G H I J K L M N O P Q R S T U V W X Y Z