Song name
# A B C D E F G H I J K L M N O P Q R S T U V W X Y Z

Misc Soundtrack - Rocky Theme tab

Watched Rocky last night.... felt like trying the theme. I borrowed the beginning 
from kevin666's tab, but changed it a little.

|-----------------------------|------------------------------|
|-----------------0-----------|--0----0-0-0---0-0-3---0-0-0--|
|-0---0-0-0---0-0----0-0-0--0-|------------------------------|
|-----------------------------|------------------------------|
|-----------------------------|------------------------------|
|-----------------------------|------------------------------|

|------------------1----------|----------------------|
|-3----3-3-3---3-3-----3-3-3--|--6---6-6-6---9-------|
|-----------------------------|----------------------|
|-----------------------------|----------------------|
|-----------------------------|----------------------|
|-----------------------------|----------------------|

     

|>           x2             <|
|----------5-----------------|-------5-------------|
|--5---8--------10--12-------|---5-8----8--10/12---|
|-----------------------9----|---------------------|
|----------------------------|---------------------|
|----------------------------|---------------------|
|----------------------------|---------------------|
     
|-------------------------8-7-|
|-12---12-12-12-10-10-8-5-----|
|-----------------------------|
|-----------------------------|
|-----------------------------|
|-----------------------------|




you can also play the main part as:

E|---------------------------------|
B|---------------------------------|
G|---------7-----------------------|
D|--7--10--7------12--14--10-------|
A|--7--10--5------12--14--10-------|
E|--5--8----------10--12--8--------|
Tap to rate this tab
# A B C D E F G H I J K L M N O P Q R S T U V W X Y Z