Song name
# A B C D E F G H I J K L M N O P Q R S T U V W X Y Z

Misc Soundtrack - Vicky Cristina Barcelona - Barcelona tab

Vicky Cristina Barcelona Soundtrack

Giulia y Los Tellarini   -   Barcelona

Tabbed by: Federico T.


VERSE:

|-------4---x---4---x---4---x---4--|--x---x---x---x-x-x---x---x---|
|-------4---x---4---x---4---x---4--|--x---4---x---4-4-4---x---4---|
|-------4---x---4---x---4---x---4--|--x---6---x---6-6-6---x---6---|
|-------6---x---6---x---6---x---6--|--x---5---x---5-5-5---x---5---|
|-------6---x---6---x---6---x---6--|--x---6---x---6-6-6---x---6---|
|---4---4---x---4---x---4---x---4--|--x---x---x---x-x-x---x---x---|

listen closely to the music to get the rythm
(these are all octaves  except the three close to each other in the middle: 1st and 2nd 
1/16 3rd = 1/4)


then, at the end of the verse, when she says "Barcelona" it goes like this:

(de todas partes...        barcelona...)

|-------4---x---4---x---4---x---4--|---x---4---x---4---x---4---x---4--|
|-------4---x---4---x---4---x---4--|---x---4---x---4---x---4---x---4--|
|-------4---x---4---x---4---x---4--|---x---4---x---4---x---4---x---4--|
|-------6---x---6---x---6---x---6--|---x---6---x---6---x---6---x---6--|
|-------6---x---6---x---6---x---6--|---x---6---x---6---x---6---x---6--|
|---4---4---x---4---x---4---x---4--|---x---4---x---4---x---4---x---4--|


BRIDGE: (lyrics: te estás equivocando no puedes seguir....)

|---------------------------|
|----------------5----------|
|---4------7-----6-----5----|
|---6------6-----6-----6----|(repeat)
|---6------5-----x-----6----|
|---4------6-----5-----4----|

im sure its played differently, but this sounds pretty good too, and its kind of close 
the chords used in the song


You can figure out the rest of the music with these two riffs


Website:

http://www.myspace.com/giuliaylostellarini
Tap to rate this tab
# A B C D E F G H I J K L M N O P Q R S T U V W X Y Z