Song name
# A B C D E F G H I J K L M N O P Q R S T U V W X Y Z

Misc Soundtrack - Godfather Theme tab

This is the second version of my Godfather Tabs, corrected few minor mistakes, which i 
all who played it noticed and corrected it in their plays. :)

The version most rated i think was a half step to high.
his should be correct, you can control it yourself listening to original melody at youtube.
Have nice time playing this classic melody.


Firstly, all parts are about the same, but here we go. :)

Part 1.

Violin plays it, so dont play it like a rock star.
Dynamics are normal.
This part is also a bit faster than all other parts.

|--8-11-10-8-11-8-10-8---------------8-11-10-8-11-8-10-8-----------|
|-8----------------------9-11-8-----8---------------------8-7-6----|
|------------------------------------------------------------------|
|------------------------------------------------------------------|
|------------------------------------------------------------------|
|------------------------------------------------------------------|

|------7-10-------7-8-------------------------------|
|--6-9--------6-9----------11-9-8-11-9-9-8-8--------|
|------------------------8--------------------------|
|---------------------10----------------------9-10--|
|---------------------------------------------------|
|---------------------------------------------------|

--------------------|-Flute plays this:|

|8-8-7-6---10-8----------6------------------------------|
|---------------9-8----8---8-6--6-9-7-8~~---------------|
|-------------------------------------------------------|
|-------------------------------------------------------|
|-------------------------------------------------------|
|-------------------------------------------------------|

Part 2.

This is played by flute i think, it is in piano, maybe in pianissimo(dynamics, you know 
thing :P).

|--8-11-10-8-11-8-10-8---------------8-11-10-8-11-8-10-8-----------|
|-8----------------------9-11-8----8---------------------8-7-6-----|
|------------------------------------------------------------------|
|------------------------------------------------------------------|
|------------------------------------------------------------------|
|------------------------------------------------------------------|

|------7-10-------7-8-------------------------------|
|--6-9--------6-9----------11-9-8-11-9-9-8-8--------|
|------------------------8--------------------------|
|---------------------10----------------------9-10--|
|---------------------------------------------------|
|---------------------------------------------------|

Violin here:

|8-8-7-6-10-8----------6--------------------------------|
|-------------9-8----8---8-6--6-9-7-8~~-----------------|
|-------------------------------------------------------|
|-------------------------------------------------------|
|-------------------------------------------------------|
|-------------------------------------------------------|

Part 3.

It is played again something like flute.
Again not full power in it.

|--8-11-10-8-11-8-10-8----------------8-11-10-8-11-8-10-8----------|
|-8----------------------9-11-8-----8---------------------8-7-6----|
|------------------------------------------------------------------|
|------------------------------------------------------------------|
|------------------------------------------------------------------|
|------------------------------------------------------------------|

|------7-10-------7-8-----------------------------|
|--6-9--------6-9----------11-9-8-11-9-9-8-8-7-8--|
|------------------------8------------------------|
|---------------------10--------------------------|
|-------------------------------------------------|
|-------------------------------------------------|

Part 4.

The ending, played in Forte i guess.

|--8-11-10-8-11-8-10-8----------------8-11-10-8-11-8-10-8----------|
|-8----------------------9-11-8-----8---------------------8-7-6----|
|------------------------------------------------------------------|
|------------------------------------------------------------------|
|------------------------------------------------------------------|
|------------------------------------------------------------------|

|------7-10-------7-8------------------------7-8~~----|
|--6-9--------6-9----------11-9-8-11-9-9-8-8----------|
|------------------------8----------------------------|
|---------------------10------------------------------|
|-----------------------------------------------------|
|-----------------------------------------------------|

The last 10 notes are not in forte, they are like fade away.

It doesnt give all the dynamics and tempo, but i made my best for you to play this as it 
be played.
The two flutes i found might just be one but different octaves.

Please comment and/or rate it :)
Anyone want to contact: priit101@gmail.com
Tap to rate this tab
# A B C D E F G H I J K L M N O P Q R S T U V W X Y Z