Song name
# A B C D E F G H I J K L M N O P Q R S T U V W X Y Z

Misc Soundtrack - Queen Of The Damned - On The Beach tab

-------------------------------------------------------------------------------
			     ON the Beach - Lestat (queen of the damned)
-------------------------------------------------------------------------------
Tabbed by: Muffins
Email: your_head_must_bang@yahoo.com

Tuning: 1 semitone below D standard

Intro:                                   1.____________
                                    |
C#|---------------------------------|------------|----------------------|
G#|-------7-8h10p8p7-8~----8p7------|------------|----------------------|
E |-o-5/7--------------7~------7~-o-|-7\5-5-3-2--|-10/11-12\11-10-10/11-|
B |-o-0~~~~~~~~~~~~~~~~~~0~~~~~~~-o-|-0~~-0-0-0--|-0~~~~-0~~~~-0--0~~~~-|
F#|---------------------------------|------------|----------------------|
C#|---------------------------------|------------|----------------------|

Part A:

|------------------8-6-5-------------------------|
|-----7-8-10-8-7------------7-8-10-8-7-----------|
|-o--7----------7----------7----------7--5-3-2-o-|
|-o-0---------------------0--------------------o-|
|----------------------------------------3-1-0---|
|------------------8-6-5-------------------------|

|---------------------(10)\8-6-5--------------------------------|
|---10-8-7---10-8-7---------------10-8-7---10-8-7---------------|
|-o-7--7-7-7-7--7-7-7-------------7--7-7-7-7--7-7-7-(7)\5-3-2-o-|
|-o-0--0-0-0-0--0-0-0-------------0--0-0-0-0--0-0-0-----------o-|
|---------------------------------------------------(5)\3-1-0---|
|---------------------(10)\8-6-5--------------------------------|

Part B:

|----------------------8-----------------------10-|
|----7--7-8-7-8-10-8-10------7--7-8-7-8-10-8-10---|
|-5/7--7------------------5/7--7------------------|
|-------------------------------------------------|
|-------------------------------------------------|
|-------------------------------------------------|

|-------------------------------20--------------------------------22-|
|------19---19-20-19-20-22-20-22---------19---19-20-19-20-22-20-22---|
|-17/19---19------------------------17/19---19-----------------------|
|--------------------------------------------------------------------|
|--------------------------------------------------------------------|
|--------------------------------------------------------------------|

Part C:

|--10-10-10-10-8--8--8--8--8--8--8--8-----------------------------|
|--10-10-10-10-10-10-10-10-10-10-10-10----------11~----10~--------|
|-----------------------11-11-11-11-11--------12~~~--12~~~----11~-|
|-0-----------------------------------------12~~~~~12~~~~~--12~~~-|
|---------------------------------------10~~~~~~~~~~~~~~~--12~~~~-|
|--------------------------------------------------------10~~~~~~-|

repeat however many times you want


| /  slide up
| \  slide down
| h  hammer-on
| p  pull-off
| ~  vibrato
| +  harmonic
| x  Mute note
===============================================================================
Tap to rate this tab
 
# A B C D E F G H I J K L M N O P Q R S T U V W X Y Z