Song name
# A B C D E F G H I J K L M N O P Q R S T U V W X Y Z

Misc Soundtrack - The Mood For Love - Yumejis Theme tab

Yumeji's theme (Shigeru Umebayashi) http://www.shigeru-umebayashi.com/
In the mood for love soundtrack


Tab by: playinginthedark72@hotmail.com

Here you can watch me playing it:
http://www.youtube.com/watch?v=vcTiGnu1bA0

E------------------------------------------------------------------------------------------|
B----11-9-8-9-9-8-6-8------------8-----------9-8----------8-11-9-8-9-9-8-6-8---------------|
G----------------------8-8-7-5-7---10-8-7-7---------7-10---------------------8-8-7-5-7-----|
D------------------------------------------------------------------------------------------|
A------------------------------------------------10----------------------------------------|
E------------------------------------------------------------------------------------------|


E----------------------------8-10-11-11-8---------------8-8--------------------8-8-10-11-11--|
B-----8--------9-8---------8--------------8-9-8-------8----------------------8---------------|
G-------10-8-7-----------8----------------------8-7-8----------------------------------------|
D-----------------------------------------------------------10-10--7-8-10-10-----------------|
A--10----------------------------------------------------------------------------------------|
E--------------------------------------------------------------------------------------------|


E--10-8-8-15-15-16-15--------------------------15------------------------------------------|
B---------------------18-16--------15-16-15-------16-15-15---------------------------------|
G---------------------------17--------------17-------------17-17---------------------------|
D------------------------------17--------------------------------17-17---------------------|
A----------------------------------------------------------------------18-18-17-17-15-15---|
E------------------------------------------------------------------------------------------|


E-----------------------------------20-20-20-20-----17-17-17--------15-16-15-----------15--|
B-----------------------------16-20------------------------------------------18-16-18------|
G--------------16-19-17-16-17------------------17-17---------17-17-------------------------|
D-----------17-----------------------------------------------------------------------------|
A-----17-18--------------------------------------------------------------------------------|
E--15--------------------------------------------------------------------------------------|


E----------------------------------------8-8-8---------------------------------------------|
B--------------------------------------8----------8-9-8----8----8-9----11-9-8-9------------|
G-17-17------------------------------8---------10-------10---10-----------------10---------|
D-------17-17-15----15-17-------------10----------------------------10------------10-------|
A----------------18-------15-15----10------------------------------------------------------|
E------------------------------------------------------------------------------------------|


E------------------------------------------------------------------------------------------|
B-------------8----------------------------------------------------------------------------|
G---7-8-----8---10-8-10--------------------------------------------------------------------|
D-----------------------10-----------------------------------------------------------------|
A--------10--------------------------------------------------------------------------------|
E------------------------------------------------------------------------------------------|
Tap to rate this tab
# A B C D E F G H I J K L M N O P Q R S T U V W X Y Z