Song name
# A B C D E F G H I J K L M N O P Q R S T U V W X Y Z

Misc Soundtrack - The Man From Uncle - Season 2 Theme tab

Man From U.N.C.L.E. Extended Second Season Titles Theme
by Jerry Goldsmith, arranged by Lalo Schiffrin

INTRO (pattern continues as riff throughout, with root changing as noted above tablature staff):

    G    Bb  C    G     Bb C
e|--3--3-1-1-3----3-3---1--3--|
B|--3--3-3-3-5----3-3---3--5--|
G|--4--4-3-3-5----4-4---3--5--|
D|--5--5-3-3-5----5-5---3--5--|
A|--5--5-1-1-3----5-5---1--3--|
E|--3--3-x-x-x----3-3---x--x--|

MELODY:


    G                                 C          Bb         
e|------------------------------------------------------------|
B|--------------8-6----6h8p6p0--------------7-8--------5-6----|
G|--------6---7----------------6-7--------5----------3--------|
D|------5-------------------------------5----------3----------|
A|----5-------------------------------3----------1------------|
E|--3---------------------------------------------------------|

   G
e|-------------------------------|
B|-------------8-6---6h8p6p0-----|
G|-------6---7---------------6-7-|
D|-----5-------------------------|
A|---5---------------------------|
E|-3-----------------------------|

Bridge & outro (only on album version, not on television):

    F                                                 G
e|-------------------------------------------------------------|
B|-------------------------------------------------------------|
G|------------------------------------------------------6-7----|
D|-----------10-9-------------------10-12-10-9-7------5--------|
A|--8---8-11------11-8------8----11----------------------------|
E|-------------------------------------------------------------|

    C          Bb         G
e|----------------------------------|
B|--------7-8--------5-6------------|
G|------5----------3------------6-7-|
D|----5----------3------------5-----|
A|--3----------1------------5-------|
E|------------------------3---------|

For more tabs from secret agent films and TV:
http://www.mister8.com
Tap to rate this tab
# A B C D E F G H I J K L M N O P Q R S T U V W X Y Z