Song name
# A B C D E F G H I J K L M N O P Q R S T U V W X Y Z

Misc Soundtrack - Twin Peaks Theme tab

A beautiful song. Took forever, but here it is:

Open G6 tuning (eBGDGD)
4/4 75 BPM

e|--------------------|---7-----0-----|-----------------|---7-----0---|
B|-------12-----------|---7-----------|----12-----------|---7---------|
G|-------7------12----|---------------|----7------12----|-------------|
D|-------7------------|---------------|----7------------|-------------|
G|----12--------------|-9-------------|-12--------------|-9-----------|
D|-12--------------12-|------------12-|--------------12-|-----------0-|

e|---------------------|-----2-2p0---|---------------------|-----2-2p0---|
B|-----------12--------|-----0-------|-----------12--------|-----0-------|
G|------12--------12---|-----0-------|------12--------12---|-----0-------|
D|---12----7----7------|---2---------|---12----7----7------|---2---------|
G|-0-------------------|-------------|-0-------------------|-------------|
D|-------------------0-|-2---------0-|-------------------0-|-2---------0-|

e|-----------0------0-|-------------------|-----------------|-----2-2p0---|
B|-7-------7----------|-8------8------7---|-3-----------0---|-----0-------|
G|----0--------0------|---0------0------0-|-----0h2-4p2-0---|-----0-------|
D|------10-------10---|-----10-----10-----|---0-------------|---2---------|
G|--------------------|-------------------|-0---------------|-------------|
D|-10-----------------|-------------------|---------------0-|-2---------0-|

e|-----------------|-----2------0-|----------0------0-|-----------------0--|
B|-----3-------0---|-----0--------|-7------7----------|-10------10--------0|
G|-----0h2-4p2-0---|-----0--------|---0--------0------|----0-------0-------|
D|---0-------------|---2--------0-|-----10-------10---|------10------10----|
G|-0---------------|--------------|-------------------|--------------------|
D|---------------0-|-2------------|-10----------------|--------------------|

e|-----------------|-----2-2p0---|-----------------|-----2-----0-|
B|-3-----------0---|-----0-------|-----3-------0---|-----0-------|
G|-----0h2-4p2-0---|-----0-------|-----0h2-4p2-0---|-----0-------|
D|---0-------------|---2---------|---0-------------|---2-------0-|
G|-0---------------|-------------|-0---------------|-------------|
D|---------------0-|-2---------0-|---------------0-|-2-----------|

e|-------0-------0-|-2-----3-----|-------0-----|-2-----3---|-0----0h2-----|
B|-3---3-------3---|-3-----5-----|-3---3-------|-5---------|-----3----3---|
G|---0-------0-----|-----0-------|---0------0--|-----0-----|---2--------2-|
D|-----------------|-------------|-------------|-----------|-0------------|
G|-5---------------|-------------|-5-----------|-----------|--------------|
D|-----------------|-------------|-------------|-----------|--------------|

Took forever! There you go. Contact: maddog.molenaar@yahoo.com
Tap to rate this tab
 
# A B C D E F G H I J K L M N O P Q R S T U V W X Y Z