Song name
# A B C D E F G H I J K L M N O P Q R S T U V W X Y Z

Misc Soundtrack - Pirates Of The Caribbean - Hes A Pirate tab

Here is the tabs of the song He's a pirate in pirate of caribbean. Its better to play 
tabs on an acoustic guitar. Its not 100% right but its better than nothing right? Watch 
video http://www.youtube.com/watch?v=_Z_lAjt-gMw for the rythm.


E||---|------|----------------|----------------------|---------------------|
B||---|------|----------------|----------5-6--6--6-8-|--5--5---------------|
G||---|------|--------------5-|--7--7--7-------------|--------7-5-7------5-|
D||---|------|------------7---|----------------------|-----------------7---|
A||---|------|----------------|----------------------|---------------------|
E||---|------|----------------|----------------------|---------------------|

----------------------|---------------------|--------------------5-|
----------5-6--6--6-8-|--5--5---------------|----------6-8--8--8---|
--7--7--7-------------|--------7-5-7------5-|--7--7--7-------------|
----------------------|-----------------7---|----------------------|
----------------------|---------------------|----------------------|
----------------------|---------------------|----------------------|

--6--6--5---5---------|-----------5---------|---------------------|
----------8---------5-|--6--6--8----------6-|--5--5--6---5--------|
--------------7---7---|-------------7---7---|----------7--------5-|
----------------------|---------------------|-----------------7---|
----------------------|---------------------|---------------------|
----------------------|---------------------|---------------------|

----------------------|---------------------|----------------------|
----------5-6--6--6-8-|--5--5---------------|----------5-6--6--6-8-|
--7--7--7-------------|--------7-5-7------5-|--7--7--7-------------|
----------------------|-----------------7---|----------------------|
----------------------|---------------------|----------------------|
----------------------|---------------------|----------------------|

---------------------|--------------------5-|--6--6--5---5---------|
--5--5---------------|----------6-8--8--8---|----------8---------5-|
--------7-5-7------5-|--7--7--7-------------|--------------7---7---|
-----------------7---|----------------------|----------------------|
---------------------|----------------------|----------------------|
---------------------|----------------------|----------------------|

-----------5---------|---------------------|-----------5--------|
--6--6--8----------6-|--5--5------------5--|--6--6--8-------6---|
-------------7---7---|--------7-5-7--7-----|------------------7-|
---------------------|---------------------|--------------------|
---------------------|---------------------|--------------------|
---------------------|---------------------|--------------------|

---------6-------|-----------------|----------------|----------------------|
--------------6--|-----------------|----------------|--10--10--10--11-10---|
-----------------|---------7---9---|--10------------|--10--10--10--10-10---|
--7--------------|--8------7---7---|--7-------------|----------------------|
-----------------|---------7---7---|--7-------------|----------------------|
-----------------|-----------------|----------------|----------------------|

--------------------|------------------------|---------------------|
--8--8--8--8-10-----|--10--10--10--11-10-----|--8/-6/-5/-3---------|
--9--9--9--9-10-----|--10--10--10--10-10-----|--9/-7/-5/-2-------9-|
--------------------|------------------------|----------------12---|
--------------------|------------------------|---------------------|
--------------------|------------------------|---------------------|

-------------------------|--------------------------|
----------10-------------|----------10--------------|
--10---12-----12--10--9--|--10--12------12----10-12-|
-------------------------|--------------------------|
-------------------------|--------------------------|
-------------------------|--------------------------|

---------------------------|---------------------------|
--10-----------------------|---------------------------|
-------12-12-10--9--10--9--|-------10-10-9-----------9-|
---------------------------|--12------------12----12---|
---------------------------|---------------------------|
---------------------------|---------------------------|

-------------------------|-------------------------|-----------------------|
-------------------------|--10---------------------|----------10--11-------|
--10---9-10--12--10--12--|------12--10-----------9-|--10--12-------------12|
-------------------------|--------------12----12---|-----------------12----|
-------------------------|-------------------------|-----------------------|
-------------------------|-------------------------|-----------------------|

------------------------|------------------|--------------------|
------------------------|--10------11------|--10-10--10--10-8---|
--10---12-9-------9-----|--10------10------|--10-10--10--10-9---|
-------------12-----10--|------------------|--------------------|
------------------------|------------------|--------------------|
------------------------|------------------|--------------------|

----------------|--------------|------------------|--------------------|
--8------6------|--5--6--5-----|--10------11------|--10-10--10--10-8---|
--7------7------|--5--5--5--7--|--10------10------|--10-10--10--10-9---|
----------------|-----------7--|------------------|--------------------|
----------------|--------------|------------------|--------------------|
----------------|--------------|------------------|--------------------|

----------------|------------------------|------------------------------|
--8------6------|--5--6--5---------------|--10------------11------------|
--7------7------|--5--5--5--7---------10-|--10---------10-10---------10-|
----------------|-----------7------12----|----------12------------12----|
----------------|---------------12-------|-------12------------12-------|
----------------|------------------------|------------------------------|

---------------------|----------------|------------------------|
--10--10--13--10-8---|--8------6------|--5--6--5---------------|
--10--10--10--10-9---|--7------7------|--5--5--5--7---------10-|
---------------------|----------------|-----------7------12----|
---------------------|----------------|---------------12-------|
---------------------|----------------|------------------------|

------------------------------|---------------------|----------------|
--10------------11------------|--10--10--13--10-8---|--8------6------|
--10---------10-10---------10-|--10--10--10--10-9---|--7------7------|
----------12------------12----|---------------------|----------------|
-------12------------12-------|---------------------|----------------|
------------------------------|---------------------|----------------|

------------------||
--5--6--5---------||
--5--5--5--7------||
-----------7------||
------------------||
------------------||
Tap to rate this tab
 
# A B C D E F G H I J K L M N O P Q R S T U V W X Y Z