Song name
# A B C D E F G H I J K L M N O P Q R S T U V W X Y Z

Misc Soundtrack - Titanic Theme tab

-------------------------------------------------------------------------------
			     Titanic Theme
-------------------------------------------------------------------------------
Tabbed by:kenaluvsguitar
Email: weimeygirl@yahoo.com

Tuning: standard

this is my first tab so cut my some slack if its off by a bit, thanks. i use finger 
to play this. enjoy.

e|---------------3----------------------------3------------------------------------|
B|-----------3--------3------------------3----------3------------------------------|
G|-------0---------------0---------0---------------------0-------------------------|
D|----------------------------0----------------------------------------------------|
A|---------------------------------------------------------------------------------|
E|---0-----------------------------------------------------------------------------|

e|-------------------3-------------------------------3------2---------------------|
B|--------------3--------3---------------------3------------3---------------------|
G|---------0-----------------0------------0---------------------------------------|
D|----------------------------------0---------------------------------------------|
A|----3---------------------------------------------------------------------------|
E|--------------------------------------------------------------------------------|
Tap to rate this tab
# A B C D E F G H I J K L M N O P Q R S T U V W X Y Z