Song name
# A B C D E F G H I J K L M N O P Q R S T U V W X Y Z

Misc Soundtrack - Star Wars Theme tab

Tab taken from a piano music sheet:

Guitar 1
|----------------------------------------------|
|----------------------------------------------|
|----------------------10--------------10------|
|-----------10---8-7-5-----10----8-7-5-----10--|
|--------8-------------------------------------|
|-8-8-8----------------------------------------|


|----------------------------------------------|
|----------------------------------------------|
|----------------------------------------------|
|-8-7-8-5--------------------------------------|
|----------------------------------------------|
|----------------------------------------------|


|----------------------------------------------|
|----------------------------------------------|
|----------------------10--------------10------|
|-----------10---8-7-5-----10----8-7-5-----10--|
|--------8-------------------------------------|
|-8-8-8----------------------------------------|


|----------------------------------------------|
|----------------------------------------------|
|-----------13---------------------------------|
|--13-12-13------------------------------------|
|----------------------------------------------|
|----------------------------------------------|


Pretty sure this is right but the end might be a little off..


Guitar 2 or Bass
|----------------------------------------------|
|----------------------------------------------|
|----------------------------------------------|
|----------------------------------------------|
|----------------------------------------------|
|--8-7-5-3-------------------------------------|

(This is played throughout in the background, you can work out the tempo)



toby.95@hotmail.co.uk


Tap to rate this tab
 
# A B C D E F G H I J K L M N O P Q R S T U V W X Y Z