Song name
# A B C D E F G H I J K L M N O P Q R S T U V W X Y Z

Misc Soundtrack - Kill Bill - The Whistling Song tab

e|---------------------------------------------------------------------------|
B|--11^13--13r11--13-13--11~~----------------------------11/13-13-11-11-11/13|
G|----------------------------13^15--15r13--15-15--13~~----------------------|
D|---------------------------------------------------------------------------|
A|---------------------------------------------------------------------------|
E|---------------------------------------------------------------------------|

e|---------------------------------------------------------------------------|
B|-13-11~~-------------------------------------------------------------------|
G|----------13/15-15-13-13-13/15-15-13~~--13\12-10-12-13~-13\12-10-12-13~----|
D|---------------------------------------------------------------------------|
A|---------------------------------------------------------------------------|
E|---------------------------------------------------------------------------|

e|---------------------------------------------------------------------------|
B|---------------11~~-----11-13p11-----11-13p11----11-13p11----11~~~---------|
G|13\12-10-12-13-------13-----------13----------13----------13---------------|
D|---------------------------------------------------------------------------|
A|---------------------------------------------------------------------------|
E|---------------------------------------------------------------------------|

| ^  bend
| r  release bend (with pluck)
| /  slide up
| \  slide down
| h  hammer-on
| p  pull-off
| ~  vibrato
| +  harmonic
| x  Mute note

//Notes: This is my first tab EVER!! @_@ I hope it's clear..I've never written one 
and I just went by ear and instinct. Hope you guys like it! :D
Tap to rate this tab
# A B C D E F G H I J K L M N O P Q R S T U V W X Y Z