Song name
# A B C D E F G H I J K L M N O P Q R S T U V W X Y Z

Misc Soundtrack - Lord Of The Rings Theme tab

----------------------------------------------------------------------------
			  LORD OF THE RINGS THEME
----------------------------------------------------------------------------
Tabbed by: 2guitargod4 (sam)
Email: sam.rocks.123@hotmail.com

Tuning: standard (EADGBe)

This is just the cool part, i havent done the whole thing.

e|--------------------------------------------------------------------------|
B|-----6--------------------------------------------------------------------|
G|-7-9-----9-7-5---7-9-7-----5-4--------------------------------------------|
D|-------------------------------7----5----5-5-7----------------------------|
A|--------------------------------------------------------------------------|
E|--------------------------------------------------------------------------|

e|--------------------------------------------------------------------------|
B|--------6----5-6-8-----6-8-10~--------------------------------------------|
G|----7-9-------------------------------------------------------------------|
D|-10-----------------------------------------------------------------------|
A|--------------------------------------------------------------------------|
E|--------------------------------------------------------------------------|

then its goes something like that ^^?? im not quite sure i just did that off memory.

Cheers
Tap to rate this tab
# A B C D E F G H I J K L M N O P Q R S T U V W X Y Z