Song name
# A B C D E F G H I J K L M N O P Q R S T U V W X Y Z

Misc Soundtrack - Alton Towers Theme tab

e------------------------------|
B------------------------------|
G------------------------------|
D------------------------------|
A-------0-2---2---2---0---0----|
E-0-2-3-----3---1---1---1------|

e------------------------------|
B------------------------------|
G------------------------------|
D---------------2-0-------0----|
A-------0-2---2-----2---2------|
E-0-2-3-----3---------3--------|

e-----------------------------|
B-----------------------------|
G-----------------------------|
D-------0-2---2---2---0---0---|
A-0-2-3-----3---1---1---1-----|
E-----------------------------|

e-----------------------------|
B-----------------------------|
G---------------2-0-------0---|
D-------0-2---2-----2---2-----|
A-0-2-3-----3---------3-------|
E-----------------------------|

And repeat :]
If there are any problems, email me at BeneathTheBlue_72@hotmail.com.
Tap to rate this tab
# A B C D E F G H I J K L M N O P Q R S T U V W X Y Z