Song name
# A B C D E F G H I J K L M N O P Q R S T U V W X Y Z

Misc Soundtrack - Secret Of Evermore - Merchant Theme tab

Secret of evermore - storekeepers
Jeremy Soule
---------------------------------

This song comes from a super nintendo game, secret of evermore, which is full of good musics.
This one is really nice to play, it is just arpeges of three notes.

video  here - http://www.youtube.com/watch?v=00hAJJyHnmM

e|--------------------0-----------------------------5---|
b|----1-------3---------------0-------1-------------5---|
g|----------------------2---------------------1-----5---|
d|------2-------3---------------2-------2-------0---7---|
a|--0-------2-------3---------------0---------------7---|
E|--------------------------4---------------0-------5---|


e|----0-------1-------3-------0-------1-------1-------0-----------|
b|----------------------0-------------------------------3-0-------|
g|------0-------2---------------0-------2-------2-----------1-----|
d|----------0-------2---------------0-------1-------2---------2---|
a|--3-----------------------3-------------------------------------|
E|----------------------------------------------------------------|


e|--------------------0-------------------------------------------|
b|----1-------3---------------0-------1-------0---------------1---|
g|----------------------2-----------------------------2-----2-----|
d|------2-------3---------------2-------2-------0---------2-------|
a|--0-------2-------3---------------0---------------0---3---------|
E|--------------------------4---------------0---------------------|


e|----5-------1-------3-------0-------1---------------0-------------------------------------|
b|----------------------0---------------------3---------------1-------3-------0-------1-----|
g|------5-------2---------------0-------2---------------0-----------------------------------|
d|--3-------0-------2---------------0-----------3---------------2-------3-------2-------2---|
a|--------------------------3---------------2-------3-------0-------2---------------0-------|
E|--------------------------------------------------------------------------4---------------|

e|---------------------------------0-3---|
b|-------------------0-----------1-------|
g|----2-------2----------------0---------|
d|---------------------2-----2-----------|
a|------3-------3----------3-------------|
E|--0-------1-------3--------------------|


e|----7-------8-------5-------7-------3-------5-------1-------0-----------|
b|--------------------------------------------------------------0-----0---|
g|------7-------9-------5-------7-------4-------5-------2---------1-2-----|
d|--6-------7-------4-------5-------2-------3-------1-------2-------------|
a|------------------------------------------------------------------------|
E|------------------------------------------------------------------------|


e|---1-------1-------0-------0-------------------------------------|
b|-------------0---------------------3-------3-------1-------0-----|
g|-----2---------------0-------2---------------1-------2-------1---|
d|--0----------------------------------3---------------------------|
a|-----------------3---------------2-------------------------------|
E|---------3---------------1---------------0-------1-------0-------|
Tap to rate this tab
# A B C D E F G H I J K L M N O P Q R S T U V W X Y Z