Song name
# A B C D E F G H I J K L M N O P Q R S T U V W X Y Z

Misc Soundtrack - Lord Of The Rings - In Dreams tab

(i take full credit for this, i did this all on my own just from hearing the song allot. 
from White Mountain Alaska)
this song is played with the high E string as the melody... (let the B and E string ring 
you play them)

INTRO
-0-2-4-7-4-2-0-4-7-9-12-11-7-4-5-4-2-----|
-----0---0-----0---0---------0----0------|
-----------------------------------------|
-----------------------------------------|
-----------------------------------------|
-----0-------0-----0---------0-----------|

(chorus)
-------7-9-10-12-14-10-7-10-0--------------|
-2-4-6-------------------------------------|
-------------------------------------------|
-------------------------------------------|
-------------------------------------------|
-------------------------------------------|

(bridge)

---7-9-10-9-7-5-7-9-7-5-4-2-0-00-2-3-5-6-5-6-8-|
-----------------------------------------------|
-----------------------------------------------|
-----------------------------------------------|
-----------------------------------------------|
-----------------------------------------------|

theres the bace of the song i hope you can figure out the rest on your own :)

isaac
Tap to rate this tab
# A B C D E F G H I J K L M N O P Q R S T U V W X Y Z