Song name
# A B C D E F G H I J K L M N O P Q R S T U V W X Y Z

Misc Soundtrack - Storm Hawks Theme tab

|=================================|
|     Storm Hawks Intro Theme     |
|       Original song by          |
|        Robert Buckley           |
|=================================|

****
The artist for this theme is Robert Buckley, according to the website below:
http://www.imdb.com/title/tt1043820/fullcredits#cast
Under the "Series Produced By" list, there is a heading that says
"Series Original Music By
Robert Buckley (25 Episodes, 2007)"
****

++++Check out my tab of "Iron Man - Armoured
Adventures Theme" by Rooney!++++

Pretty awesome theme; easy to play and sounds good! Perfect for beginners :P
I'm not exactly sure who plays what in this, but I saw on some website
that the original (emphasis on original) was by a guy called Robert Buckley.
Any corrections are much welcomed!

Please rate and comment!
Enjoy! :D

For Moni :)

****
2 Guitars
Standard Tuning (eBGDAE)
PM  = Palm Muting (a "." represents average-heavy muting and a ","
      represents lighter muting)

****

Part 1
Guitar 1
Clean
e|-----------------------------------|
B|-----------------------------------|
G|-----------------------------------|
D|-----------------------------------|
A|------5---4---3-------5---4---3----|
E|--3-3---3---3---6-3-3---3---3---6--|


****

Part 2
Guitars 1 & 2
Gain
e|----------------------------------------------|
B|----------------------------------------------|
G|----------------------------------------------|
D|--------------7-7-7-5---------------7-7-7-10--|
A|--5--5--8--8--5-5-5-3---5--5--8--8--5-5-5-8---|
E|--3--3--6--6------------3--3--6--6------------|
Might be three-string power chords, but to me it doesn't sound like it.


****

Part 3
Guitar 1
Clean
e|-----------------------------------|
B|-----------------------------------|
G|-----------------------------------|
D|-----------------------------------|
A|------5---4---3-------5---4---3----|
E|--3-3---3---3---6-3-3---3---3---6--|

e|-----------------------------------|
B|-----------------------------------|
G|-----------------------------------|
D|-----------------------------------|
A|------8---7---6-------8---7---6----|
E|--6-6---6---6---9-6-6---6---6---9--|

e|-----------------------------------|
B|-----------------------------------|
G|-----------------------------------|
D|------5---4---3--------------------|
A|--3-3---3---3---6------------------|
E|-----------------------------------|

Guitar 2
Gain
e|-----------------------------------|
B|-----------------------------------|
G|-----------------------------------|
D|-----------------------------------|
A|--5-5-------------5-5--------------|
E|--3-3-------------3-3--------------|

e|-----------------------------------|
B|-----------------------------------|
G|-----------------------------------|
D|-----------------------------------|
A|--8-8-------------8-8--------------|
E|--6-6-------------6-6--------------|

e|-----------------------------------|
B|-----------------------------------|
G|-----------------------------------|
D|--5-5------5-5---55-5-3-3----------|
A|--3-3------3-3---33-3-1-1-7-7-5-5--|
E|--------------------------5-5-3-3--|


****

Part 4
Guitars 1 & 2
Gain
e|----------------------------------------------|
B|----------------------------------------------|
G|----------------------------------------------|
D|--------------7-7-7-5---------------7-7-7-10--|
A|--5--5--8--8--5-5-5-3---5--5--8--8--5-5-5-8---|
E|--3--3--6--6------------3--3--6--6------------|

****

Part 5
Guitar 1
Clean
e|-------------------|
B|-------------------|
G|-------------------|
D|-------------------|
A|------5---4---3----|
E|--3-3---3---3---6--|

e|-------------------|
B|-------------------|
G|-------------------|
D|-------------------|
A|------8---7---6----|
E|--6-6---6---6---9--|

e|-------------------|
B|-------------------|
G|-------------------|
D|-------------------|
A|-------------------|
E|-------------------|

e|-------------------|
B|-------------------|
G|-------------------|
D|-------------------|
A|-------------------|
E|-------------------|

Guitar 2
Gain
e|-------------------|
B|-------------------|
G|-------------------|
D|-------------------|
A|--5-5--------------|
E|--3-3--------------|

e|-------------------|
B|-------------------|
G|-------------------|
D|-------------------|
A|--8-8--------------|
E|--6-6--------------|

e|-------------------|
B|-------------------|
G|-------------------|
D|--5-5--------------|
A|--3-3--------------|
E|-------------------|

e|-------------------|
B|-------------------|
G|-------------------|
D|--7-7-7-7-7-7-7-7--|
A|--5-5-5-5-5-5-5-5--|
E|-------------------|


****

Part 6
Guitar 2
Gain
e|-------------------|
B|-------------------|
G|-------------------|
D|------5---5-----5--|
A|--5-5-5-5-5-5-5-5--|
E|--3-3-3-3-3-3-3-3--|
PM  . . . . . . . .

e|-------------------|
B|-------------------|
G|-------------------|
D|------5---5-----5--|
A|--5-5-5-5-5-5-5-5--|
E|--3-3-3-3-3-3-3-3--|
PM  . . . . . . . .

e|-------------------|
B|-------------------|
G|-------------------|
D|------5---5-----5--|
A|--5-5-5-5-5-5-5-5--|
E|--3-3-3-3-3-3-3-3--|
PM  . . . . . . . .

e|-------------------|
B|-------------------|
G|-------------------|
D|------5---5-----5--|
A|--5-5-5-5-5-5-5-5--|
E|--3-3-3-3-3-3-3-3--|
PM  . . . . . . . .

e|-------------------|
B|-------------------|
G|-------------------|
D|------5---5-----5--|
A|--5-5-5-5-5-5-5-5--|
E|--3-3-3-3-3-3-3-3--|
PM  . . . . . . . .

e|-------------------|
B|-------------------|
G|-------------------|
D|--5-5-5-5-5-5-(5)--|
A|--5-5-5-5-5-5-(5)--|
E|--3-3-3-3-3-3-(3)--|
PM  . . . , , ,


****

Part 7
Guitar 1
Clean
e|-----------------------------------|
B|-----------------------------------|
G|-----------------------------------|
D|-----------------------------------|
A|------5---4---3-------5---4---3----|
E|--3-3---3---3---6-3-3---3---3---6--|


****

Part 8
Guitars 1 & 2
Gain
e|----------------------------------------------|
B|----------------------------------------------|
G|----------------------------------------------|
D|--------------7-7-7-5---------------7-7-7-10--|
A|--5--5--8--8--5-5-5-3---5--5--8--8--5-5-5-8---|
E|--3--3--6--6------------3--3--6--6------------|


****

End on
Guitars 1 & 2
Gain
e|-------|
B|-------|
G|-------|
D|-------|
A|--5-5--|
E|--3-3--|

Don't forget to rate and comment!! :D
Tap to rate this tab
# A B C D E F G H I J K L M N O P Q R S T U V W X Y Z