Misc Soundtrack - Zeitgeist Theme tab

-------------------------------------------------------------------------------
			     ZEITGEIST THEME - Peter Joseph
-------------------------------------------------------------------------------
Tabbed by: Demec
Email:

Tuning: Standard

e|-----------------------------------------|
B|------8------8------8-------8------8-----|
G|----8------8------8------8-------8---8---|
D|-10-----10-----10-----10------10---------|
A|-----------------------------------------|
E|-----------------------------------------|

e|-----------------------------------------|
B|-----6-----6-----6-----6-----------------|
G|---7-----7-----7-----7---8-7----7--------|
D|-8-----8-----8-----8---------10----------|
A|-----------------------------------------|
E|-----------------------------------------|

e|-----------------------------------------|
B|-------8---------8---------8---------8---|
G|----10--10----10--10----10--10----10--10-|
D|-10--------10--------10--------10--------|
A|-----------------------------------------|
E|-----------------------------------------|

e|-----------------------------------------|
B|------10---------10------10-8-7-8-7-8-10-|
G|---10----10---10----10-------------------|
D|-8----------8----------8-----------------|
A|-----------------------------------------|
E|-----------------------------------------|
Tap to rate this tab
 
# A B C D E F G H I J K L M N O P Q R S T U V W X Y Z