Misc Soundtrack - Jurassic Park Theme tab

Song: Jurassic Park Theme
Artist: John Williams

Tabbed by: dusty125

Tuning: Standard (EADGBe)

This is a beautiful sounding song and all the other tabs I've seen for it were lacking 
the original score.

The numbers in the () are extra notes I add to make it sound cool. They are optional and 
have to be played.

e|----------------------------------------------------1----------------|
B|---------------------1-1--4-4---3---1-------3---1-------4--3-3--1-1--|
G|--3~--3-2-3---3-2-3---------------3----2------3-------3--------------|
D|-----------------------------------------3---------------------------|
A|---------------------------------------------------------------------|
E|---------------------------------------------------------------------|

The next part is an octave higher.
e|----------------------------------8-8--11-11---10----8---------10----8--|
B|--11-10-11---11-10-11---11-10-11------------------11----10--------11----|
G|-----------------------------------------------------------10-----------|
D|------------------------------------------------------------------------|
A|------------------------------------------------------------------------|
E|------------------------------------------------------------------------|

e|--13----11--10-10--8-8--|
B|-----11-----------------|
G|------------------------|
D|------------------------|
A|------------------------|
E|------------------------|

Main Riff
e|--------------------------------------------------------|
B|--11-10-11-------11-10-11-------11-10-11h12-(12)-----9--|
G|-----------10-8-----------10-8------------------10------|
D|---------------------------------------------------8----|
A|--------------------------------------------------------|
E|--------------------------------------------------------|

e|--------------------------------------------11-10-11----------------------|
B|--11-10-11-------11-10-11-------11-10-11----------------11-10-11--10--11--|
G|-----------10-8-----------10-8--------------------------------------------|
D|--------------------------------------------------------------------------|
A|--------------------------------------------------------------------------|
E|--------------------------------------------------------------------------|

e|--------------------------------------------------------1----------------|
B|-------------------------1-1--4-4---3---1-------3---1-------4--3-3--1-1--|
G|--3-2-3---3-2-3---3-2-3---------------3----2------3-------3--------------|
D|---------------------------------------------3---------------------------|
A|-------------------------------------------------------------------------|
E|-------------------------------------------------------------------------|

e|------------------------------------13--11-10-11--|
B|--11-10-11---11-10-11---11-10-11------------------|
G|---------------------------------10---------------|
D|--------------------------------------------------|
A|--------------------------------------------------|
E|--------------------------------------------------|

e|--13----11--10-----13----11---13----11--10-----13-15-17--|
B|-----10--------13-----10---------10--------13------------|
G|---------------------------------------------------------|
D|---------------------------------------------------------|
A|---------------------------------------------------------|
E|---------------------------------------------------------|

e|--------------------------------------------------------|
B|--11-10-11-------11-10-11-------11-10-11h12-(12)-----9--|
G|-----------10-8-----------10-8------------------10------|
D|---------------------------------------------------8----|
A|--------------------------------------------------------|
E|--------------------------------------------------------|

e|-------------------------------------------------------------|
B|--11-10-11-------11-10-11-------11-10-11h12-(12)-----11--10--|
G|-----------10-8-----------10-8------------------10-----------|
D|---------------------------------------------------8---------|
A|-------------------------------------------------------------|
E|-------------------------------------------------------------|

e|-----------------------------------------------------------------------|
B|--11-10-11-------11-10-11-------11-10-11h12-(12)------11----10----11~--|
G|-----------10-8-----------10-8------------------8----------------------|
D|--------------------------------------------------10-------------------|
A|-----------------------------------------------------------------------|
E|-----------------------------------------------------------------------|

That's all. I ear-transcribed this while listening to the song so you might have to 
to it to get some of the timing right. Have fun playing this amazing song. Please rate high.
Tap to rate this tab
 
# A B C D E F G H I J K L M N O P Q R S T U V W X Y Z