Misc Soundtrack - Queen Of The Damned - On The Beach tab

-------------------------------------------------------------------------------
		     On the Beach - Queen of the Damned
-------------------------------------------------------------------------------
Tabbed by: Adam Jaramillo
Email: thatguyuthotuknew@yahoo.com

Tuning:
  Intro
e|--------------------|--------------------|--------------|--------------|
B|-------7------------|-------7------------|--------------|--------------|
G|-----8---9~-8h9p8---|-----8---9~-8h9p8---|-9~-9p8h9p8---|-9~-9p8h9p8---|
D|-7/9--------------9-|-7/9--------------9-|------------9-|------------9-|
A|--------------------|--------------------|--------------|--------------|
E|--------------------|--------------------|--------------|--------------|

  Verse 1 Repeat Twice
e|------------------------|-----------------------|
B|---------7-------10-8-7-|---------7-------------|
G|-----8h9---9p8----------|-----8h9---9p8---------|
D|-7h9-----------9--------|-7h9-----------9-7-5-4-|
A|------------------------|-----------------------|
E|------------------------|-----------------------|

  Verse 2 Repeat Twice
e|--------------------------7---7-|------------------------------|
B|-7-------7-------10-/12-8---7---|-7-------7--------------------|
G|---9h8-----9p8------------------|---9p8-----9p8----------4---4-|
D|-------9-------9----------------|-------9-------9-7-/9-5---4---|
A|--------------------------------|------------------------------|
E|--------------------------------|------------------------------|

e|------------------------------|------------------------------|
B|---------------------------10-|---------------------------12-|
G|-----8---8h9-8h9-9/11-9h11----|-----8---8h9-8h9-9/11-9h11----|
D|-7h9---9----------------------|-7h9---9----------------------|
A|------------------------------|------------------------------|
E|------------------------------|------------------------------|

  Chorus (technically)
e|-------11----11h12-11h12-12/14-12h14-14/17~-|-------11----11h12-11h12-12/14-12h14-14/19~-|
B|-10h12----12--------------------------------|-10h12----12--------------------------------|
G|--------------------------------------------|--------------------------------------------|
D|--------------------------------------------|--------------------------------------------|
A|--------------------------------------------|--------------------------------------------|
E|--------------------------------------------|--------------------------------------------|

  Bridge
e|---------------|------------|
B|-10b12r-10~-7~-|-7b8r-7~----|
G|---------------|---------8~-|
D|---------------|------------|
A|---------------|------------|
E|---------------|------------|

Repeat Verse 1 and 2 then end with Chorus


************************************

| /   Slide
| h   Hammer-on
| p   Pull-off
| ~   Vibrato
| b   Bend
| r   Release

************************************
Tap to rate this tab
 
# A B C D E F G H I J K L M N O P Q R S T U V W X Y Z