Song name
# A B C D E F G H I J K L M N O P Q R S T U V W X Y Z

Misc Soundtrack - Nightmare On Elm Street Theme tab

Lead
1|----9-8-9--------|-----9-8-9------------|-----9-12-14-10-11-12--------|
2|--7-------9-10---|---7-------9-10-----6-|---7------------------7------|
3|6--------------6-|-6--------------6-7---|-6---------------------------|
4|-----------------|----------------------|-----------------------------|
5|-----------------|----------------------|-----------------------------|
6|-----------------|----------------------|-----------------------------|

Rhythm
1|-----------------|----------------------|-----------------------------|
2|-----------------|----------------------|-----------------------------|
3|----6-5-6--------|-----6-5-6------------|-----6-9-11--7--8--9---------|
4|--4-------6-7----|---4-------4-7-----4--|---4-----------------4-------|
5|4-------------4--|-4-------------4-5----|-4---------------------------|
6|-----------------|----------------------|-----------------------------|

i learned it in C tuning but standard sounds just fine to, or any drop tunings will work.
Tap to rate this tab
 
# A B C D E F G H I J K L M N O P Q R S T U V W X Y Z