Misc Soundtrack - Pirates Of The Caribbean Theme tab

LEAD:

|------------------------------------------------------------------|
|----------------------------------------5-6-8-8-8p6-6/5-5---------|
|----------------------------------5-7-7-------------------7p5-5h7-|
|--------------------------------7---------------------------------|
|5-55555-5-55555-5-55555-5-55555-----------------------------------|
|------------------------------------------------------------------|

|----------------------------------|----------------5-6-6p5-5---|
|--------5-6-8-8--8p6-6/5----------|--------5-6-8-8--------8----|
|--5-7-7------------------7p5-5h7--|--5-7-7-------------------7-|
|7---------------------------------|7---------------------------|
|----------------------------------|----------------------------|
|----------------------------------|----------------------------|

|----------5---------------|
|----6-8-8-----5-5h6p5---5-|
|5-7---------7---------7---|
|--------------------------|
|--------------------------|
|--------------------------|

|---------|--------|------|------|-------|
|-10-10-10|--11--10|-8-8-8|--8-10|-------|
|-10-10-10|--10--10|-9-9-9|--9-9-|-------|
|---------|--------|------|------|-------|
|---------|--------|------|------|-------|
|---------|--------|------|------|-------|

|---------|-------|---------------------|
|-10-10-10|-11--10|-8/6--5--------------|
|-10-10-10|-10--10|-7/5--5--------------|
|---------|-------|---------------------|
|---------|-------|---------------------|
|---------|-------|---------------------|

|----------|-------------|---------|-------------|
|----------|--------8--10|-8-------|------8---10-|
|--7---7--9|-10----------|-----10-9|-10----------|
|--7-------|-------------|---------|-------------|
|----------|-------------|---------|-------------|
|----------|-------------|---------|-------------|

|-------|-----------|---------|-------|-------|
|-8----8|-10--8-----|---------|-------|-------|
|---10--|---------10|-9--10-9-|-7-9-5-|-7-7-9-|
|-------|-----------|---------|-------|-------|
|-------|-----------|---------|-------|-------|
|-------|-----------|---------|-------|-------|

|---------|---------|----------|--------|------|
|----8--10|-8------8|-10-8-----|--------|------|
|-10------|-----10--|--------10|-7--7--9|------|
|---------|---------|----------|--------|------|
|---------|---------|----------|--------|------|
|---------|---------|----------|--------|------|

|---------|--------|--------|---------|-----|
|----8--10|-11---8-|----8---|---------|-----|
|-10------|-----7--|-10---9-|-7--9--6-|-----|
|---------|--------|--------|---------|-----|
|---------|--------|--------|---------|-----|
|---------|--------|--------|---------|-----|

|-----------------------------------|
|---------5-6-8-8-8p6-6/5-5---------|
|---5-7-7-------------------7p5-5h7-|
|-7---------------------------------|
|-----------------------------------|
|-----------------------------------|

|----------------------------------|----------------5-6-6p5-5---|
|--------5-6-8-8--8p6-6/5----------|--------5-6-8-8--------8----|
|--5-7-7------------------7p5-5h7--|--5-7-7-------------------7-|
|7---------------------------------|7---------------------------|
|----------------------------------|----------------------------|
|----------------------------------|----------------------------|

|----------5---------------|
|----6-8-8-----6-5-5-6p5---|
|5-7---------7-----------7-|
|--------------------------|
|--------------------------|
|--------------------------|

=================================================================================================

CHORDS:

Dm Bb Am Dm
Bb F C Dm
Dm Gm Am Dm
Bb Dm A A7
x2

Dm C Dm
Dm C Dm

Dm C F Bb
F Am Dm Dm
Dm C F Bb
Gm Am A

Dm Bb Am Dm
Bb F C Dm
Dm Gm Am Dm
Bb Dm A Dm
Tap to rate this tab
 
# A B C D E F G H I J K L M N O P Q R S T U V W X Y Z