Misc Soundtrack - Superman - Love Theme tab


The London Symphony Orchestra/John Williams
Love Theme from Superman
Superman:The Movie
1978


  00:01
E:-------------------------------------------------------------------------------|
B:-------------------------------------------------------------------------------|
G:------------------------------------------------------9------------------------|
D:-12--12--12--12--12--12--12--11--12--12--12--12--12------12--11----------------|
A:---10--10--10--10--10--10--10--10--10--10--10--10--10--10--10------------------|
E:-------------------------------------------------------------------------------|


  00:14
E:(-------------7---5-------------------------------------------------------------)|
B:(---------------------------------8-7-8--7-5-0-2---4-2-4------------------------)|
G:(-0---4---7-----------------------------------9--11--11--12--11---9-------------)|
D:-12--12--12--12--12--11--12--11--10--12------------------------------------------|
A:---10--10--10--10--10--10--10--10--10--10--10--10--10--10--10--10----------------|
E:---------------------------------------------------------------------------------|
	

  00:26
E:(-------------7---5---------6-5-6-5-3------)--------------------------|
B:(------------------------------------------)--------------------------|
G:(-0---4---7---------------------------3-5-7)--9--12--11---9--11-------|
D:-12--12--12--12--12--11--11--11--10--11--12---------------------------|
A:---10--10--10--10--10--10--10--10--10--10--10--10--10--10--10--10-----|
E:----------------------------------------------------------------------|


  00:37
E:-----------------------------------------------------------------------------------------------|
B:----13-------13-12-10-12--------13-------13-12-10-12-------12p10-10-12p10-10------10p8-8-10p8-8|
G:-10----10-10--------------10-10----10-10-------------10-10-------------------10-10-------------|
D:-----------------------------------------------------------------------------------------------|
A:-----------------------------------------------------------------------------------------------|
E:-----------------------------------------------------------------------------------------------|


  00:56
E:-------15--14--15p14-12--14-------------------------------------------------------------------|
B:-11-11----------------------------------------------------------------------------------------|
G:--------------------------------------------------------9---------------------------9---------|
D:---------------------------12--12--12--11--12--12--12------12--12--12--11--12--12------12-----|
A:-----------------------------10--10--10--10--10--10--10--10--10--10--10--10--10--10--10--10---|
E:----------------------------------------------------------------------------------------------|


  01:15
E:-------------------------------------------------------------------------------------------|
B:-------------------------------------------------------------------------------------------|
G:----------12-10----------------------------------------12-10-10--11-10-11--10-8------------|
D:----------------13-12-13--12-10------------------------------------------------------------|
A:----10-13--------------------------8--10-8-10----10-13--------------------------8--10--13--|
E:-11-----------------------------11-------------11------------------------------------------|

  	

  01:39
E:------------------------------------------------------------------------------------------------|
B:--------------------------------------------------------------------------1-3-4-8s9-8-8-6-4-----|
G:-------13-------13-12-10-12-------13-------13-12-10-8--7---------12-10-10-----------------------|
D:-11-11----11-11-------------11-11----11-11------------------------------------------------------|
A:-----------------------------------------------------------10-13--------------------------------|
E:---------------------------------------------------------11-------------------------------------|


  02:04
E:------------------------------------------------------------------------------------------------|
B:----------------8---7----------------------------------------------------------10------8--------|
G:-12-10-12--8-8---8---8--14-12-14-------------------------------12-10-12--10-10---10-10--10-10---|
D:---------------------------------15-13-12-------------12-13-15----------------------------------|
A:----------------------------------------------12-13-15------------------------------------------|
E:-----------------------------------------13-15--------------------------------------------------|



  02:13
E:-----------------------------------------------(----------8-5-5--11-8-8)------------------------|
B:-----------------------------------------------(-----------------------)------------------------|
G:-10-12-10--7-5-3-------------------------9-7-7-(-----5-2-2-------------)------------------------|
D:----------------------------3-5----------------(-----------------------)10-9-10-9-7-------------|
A:-----------------------3-5-6--------7-10-------(3-0-0------------------)------------------------|
E:-----------------3-5-6------------8------------------------------------------------8-10-12-10-12|


  02:28
E:--------------(------855-11-8-8)----------------------------------------------------------------|
B:--------------(----------------)----------------------------------------------------------------|
G:--------9-7-7-(---522----------)-8-7-8-7-5--------------------------------------10-----10-9-7-9-|
D:--------------(----------------)-----------------(10-9-7-9-5-5-9-7-5-7-2-2)-7-7----7-7----------|
A:---7-10-------(300-------------)-----------5-7-10-----------------------------------------------|
E:-8----------------------------------------------------------------------------------------------|

  	

  02:40
E:------------------------------------------------------------------------------------------------|
B:--------------------------------------13-12--10-12-8-8-10p8-8-10p8-8-6-6-8p6-6-8p6-6---5--------|
G:-----10-----10-9-7-9--------12-----------------------------------------------------------5------|
D:-7-7----7-7-----------10-10-----10-10-----------------------------------------------------------|
A:------------------------------------------------------------------------------------------------|
E:------------------------------------------------------------------------------------------------|


  03:05
E:-----------------------------------------------------------------------------------------|
B:-----------------------------------------------------------------------------------------|
G:---------13-11-11--------------------------------------13-11-11--12-11-12-11-9-----------|
D:------------------14-13-14-13-11---------------------------------------------------------|
A:---11-14----------------------------9-11-9-11-----11-14------------------------9-11-14---|
E:-12------------------------------12-------------12---------------------------------------|


  03:29
E:-----------------------------------------------------------------|
B:------10-----10--9-7-9----------10-----10--9-7-5--7--------------|
G:-----------------------------------------------------------------|
D:-9--9----9-9--------------9--9-----9-9---------------------------|
A:-----------------------------------------------------------------|
E:-----------------------------------------------------------------|



  03:42
E:--------------------------------------------------12-10-------------------------------------5-7~|
B:--------12-10-10---------------------------------------------------------------8------8--8----7~|
G:-------------------------------5--7--9--9-10-9-10---------7-7-5-7------7-7-5-7------7---------6~|
D:---9-12--------(------14-14---)-------------------------5---------5--5------------5-----------5~|
A:-10------------(12-14-------12)-----------------------------------------------------------------|
E:------------------------------------------------------------------------------------------------|


  04:06
E:~~~~~~~~~~~~~~~~~~~~~~------------------11--9-------------9-7p6----------12-11--12-11-9---------|
B:-7--7--7--7--7--7--7--7-----------7-----------------------------5--7--9------------------12-12--|
G:--8--8--8--8--8--8--8--8----4--8----------------------------------------------------------------|
D:~~~~~~~~~~~~~~~~~~~~~~----(-16--16--16--16--15--15--15--15---)----------------------------------|
A:~~~~~~~~~~~~~~~~~~~~~~----(---18--18--18--18--18--18--18--18-)----------------------------------|
E:------------------------------------------------------------------------------------------------|



  04:28
E:-------------------------------------------------------------------|
B:-------------------------------------------------------------------|
G:-------------------------------------------------------------------|
D:-16--16--16--16--16--16--16--16--16--16----------------------------|
A:---18--18--18--18--18--18--18--18--18--18---11--14--18--16---14----|
E:-------------------------------------------------------------------|
Tap to rate this tab
 
# A B C D E F G H I J K L M N O P Q R S T U V W X Y Z