Song name
# A B C D E F G H I J K L M N O P Q R S T U V W X Y Z

Misc Soundtrack - Star Trek - The Next Generation Theme tab

Gene Roddenberry, Jerry Goldsmith, and Alexander Courage wrote this music.
I am including the easy part and the harder part to this song. This
is in the opening credits for Star Trek: The Next Generation episodes!
I hope you like them! Have 2 people play them togeather and it sounds
 great (or the second part on a twelve string). Enjoy !


easy:

e-------0-------5-3----1-3-5-1-3--1--0--0---0--------|
B-----1----3------------------------------1---3------|
G-0--------3--3-----3--------------------------------|
D----------------------------------------------------|
A----------------------------------------------------|
E----------------------------------------------------|


{basically the same as the first only 1-3 strings at one time}
harder:

e-------0-------5-3----1-3-5-1-3--1--0--0---0---------|
B-----1-5--3----6-5------5-----5--3-------1---3-------|
G-0--------3--3------3------------------------4-------|
D-----2----------------3-----3-------2--2---2---------|
A-----------------------------------------3-----------|
E-3---------------------------------------------------|
Tap to rate this tab
 
# A B C D E F G H I J K L M N O P Q R S T U V W X Y Z