Song name
# A B C D E F G H I J K L M N O P Q R S T U V W X Y Z

Misc Soundtrack - Terminator Theme tab

Tuning: Drop C [C G C F A D]

This is how I play it. I've never compared my version to the actual song in the movies, 
I think this is close enough. Enjoy :D

D|----------------------------------------------------------------|
A|-----------------------------------------------------12~--10~~--|
F|------9h11-12~~~---11-------------9h11-12~~~---11---------------|
C|----------------------12--------------------------12------------|
G|-------------------------10~~-----------------------------------|
C|----------------------------------------------------------------|

D|-------------------------------------------------|
A|-------------------------------------------------|
F|------9h11-12~~~---11----------------------------|
C|----------------------12-------------------------|
G|-------------------------10~~------7h9-10~~~-----|
C|-------------------------------------------------|

And the darker part of the song:

D|--------------------------------------------|
A|--------------------------------------------|
F|--------------------------------------------|
C|--00-0-00----00-0-00----00-0-00----00-0-00--|
G|--00-0-00----00-0-00----00-0-00----00-0-00--|
C|--00-0-00----00-0-00----00-0-00----00-0-00--|
    .. . ..    .. . ..    .. . ..    .. . ..
Tap to rate this tab
 
# A B C D E F G H I J K L M N O P Q R S T U V W X Y Z