Misc Soundtrack - Inception - Time chords

Highlighted       Show chord diagrams
Chord used are: Am, Em, G, D.
Am: x02210
Em 1: 022000
Em 2: x79987
G: 355433
D: xx0232

The song is like this

Guitar 1:
Am, Em 1, G, D. Then Am, Em 2, G, D.

Guitar 2:

--------------------|
--------------------|
-----------4--------|
-------5------4-----|
---3----------------|
--------------------|

After a while 1:58 a guitar with gain plays this

----5-h-7--7-------3-h-5--5------------------------|
----------------------------------5-h-7--7---------|
---------------------------------------------------|
Tap to rate this tab
 
# A B C D E F G H I J K L M N O P Q R S T U V W X Y Z