Song name
# A B C D E F G H I J K L M N O P Q R S T U V W X Y Z

Misc Soundtrack - The Matrix Theme tab

-------------------------------------------------------------------------------
			     The Matrix
-------------------------------------------------------------------------------
Tabbed by: Petkovski (Computer Generated Tab)
Email: chill.bt@live.com

Tuning: Standard


1st time --

|-----------|-----------|-----------|-----------|
|-----------|-----------|-----------|-----------|
|-0----0----|-0----0----|-0----0----|-0----0----|
|-----------|-----------|-----------|-----------|
|-----------|-----------|-----------|-----------|
|-----------|-----------|-----------|-----------|


|---------------------|---------------------|
|---------------------|---------------------|
|-------------------2-|-------------------2-|
|-5-2-2-2-2-2-2-2-2-2-|-5-2-2-2-2-2-2-2-2-2-|
|-5-2-2-2-2-2-2-2-2-0-|-5-2-2-2-2-2-2-2-2-0-|
|-3-0-0-0-0-0-0-0-0---|-3-0-0-0-0-0-0-0-0---|


|---------------------|---------------------|---------------------|
|---------------------|---------------------|---------------------|
|-------------------2-|-------------------2-|-------------------2-|
|-5-2-2-2-2-2-2-2-2-2-|-5-2-2-2-2-2-2-2-2-2-|-5-2-2-2-2-2-2-2-2-2-|
|-5-2-2-2-2-2-2-2-2-0-|-5-2-2-2-2-2-2-2-2-0-|-5-2-2-2-2-2-2-2-2-0-|
|-3-0-0-0-0-0-0-0-0---|-3-0-0-0-0-0-0-0-0---|-3-0-0-0-0-0-0-0-0---|


|---------------------|---------------------|---------------------|
|---------------------|---------------------|---------------------|
|-------------------2-|---------------------|---2-2-2-2-2-2-2-2-2-|
|-5-2-2-2-2-2-2-2-2-2-|-5-2-2-2-2-2-2-2-2-2-|-5-2-2-2-2-2-2-2-2-2-|
|-5-2-2-2-2-2-2-2-2-0-|-5-2-2-2-2-2-2-2-2-2-|-5-0-0-0-0-0-0-0-0-0-|
|-3-0-0-0-0-0-0-0-0---|-3-0-0-0-0-0-0-0-0-0-|-3-------------------|


2nd time --

|---------------------|---------------------|
|---------------------|---------------------|
|-------------------2-|-------------------2-|
|-5-2-2-2-2-2-2-2-2-2-|-5-2-2-2-2-2-2-2-2-2-|
|-5-2-2-2-2-2-2-2-2-0-|-5-2-2-2-2-2-2-2-2-0-|
|-3-0-0-0-0-0-0-0-0---|-3-0-0-0-0-0-0-0-0---|


|---------------------|---------------------|---------------------|
|---------------------|---------------------|---------------------|
|-------------------2-|-------------------2-|-------------------2-|
|-5-2-2-2-2-2-2-2-2-2-|-5-2-2-2-2-2-2-2-2-2-|-5-2-2-2-2-2-2-2-2-2-|
|-5-2-2-2-2-2-2-2-2-0-|-5-2-2-2-2-2-2-2-2-0-|-5-2-2-2-2-2-2-2-2-0-|
|-3-0-0-0-0-0-0-0-0---|-3-0-0-0-0-0-0-0-0---|-3-0-0-0-0-0-0-0-0---|


|---------------------|---------------------|---------------------|
|---------------------|---------------------|---------------------|
|-------------------2-|---------------------|---2-2-2-2-2-2-2-2-2-|
|-5-2-2-2-2-2-2-2-2-2-|-5-2-2-2-2-2-2-2-2-2-|-5-2-2-2-2-2-2-2-2-2-|
|-5-2-2-2-2-2-2-2-2-0-|-5-2-2-2-2-2-2-2-2-2-|-5-0-0-0-0-0-0-0-0-0-|
|-3-0-0-0-0-0-0-0-0---|-3-0-0-0-0-0-0-0-0-0-|-3-------------------|


3rd time --

|---------------------|---------------------|
|---------------------|---------------------|
|-------------------2-|---------------------|
|-5-2-2-2-2-2-2-2-2-2-|-5-2-2-2-2-2-2-2-2-2-|
|-5-2-2-2-2-2-2-2-2-0-|-5-2-2-2-2-2-2-2-2-2-|
|-3-0-0-0-0-0-0-0-0---|-3-0-0-0-0-0-0-0-0-0-|


|---------------------|---------------------|---------------------|
|---------------------|---------------------|---------------------|
|---2-2-2-2-2-2-2-2-2-|---2-2-2-2-2-2-2-2-2-|-2-5-5-5-5-5-5-5-5-5-|
|-5-2-2-2-2-2-2-2-2-2-|-5-2-2-2-2-2-2-2-2-2-|-2-5-5-5-5-5-5-5-5-5-|
|-5-0-0-0-0-0-0-0-0-0-|-5-0-0-0-0-0-0-0-0-0-|-0-3-3-3-3-3-3-3-3-3-|
|-3-------------------|-3-------------------|---------------------|


|---------------------|---------------------|---------------------*|
|---------------------|---------------------|---------------------*|
|-------------------2-|-2-4-4-4-4-4-4-4-4-4-|---------------------*|
|-5-2-2-2-2-2-2-2-2-2-|-2-4-4-4-4-4-4-4-4-4-|-5-2-2-2-2-2-2-2-2-2-*|
|-5-2-2-2-2-2-2-2-2-0-|-0-2-2-2-2-2-2-2-2-2-|-5-2-2-2-2-2-2-2-2-2-*|
|-3-0-0-0-0-0-0-0-0---|---------------------|-3-0-0-0-0-0-0-0-0-0-*|
Tap to rate this tab
 
# A B C D E F G H I J K L M N O P Q R S T U V W X Y Z