Song name
# A B C D E F G H I J K L M N O P Q R S T U V W X Y Z

Misc Soundtrack - Brady Bunch tab

Brady Bunch
-----------

E|----------------|----------------|--------------------------------------
B|----------------|----------------|--------------------------------------
G|----------------|----------------|--------------------------------------
D|----------------|-----0-2-4-0----|-0-2-4-4-4-4-5-4-2-0-2----------------
A|-0-2-4-0--------|-0-0------------|--------------------------------------
E|----------------|----------------|--------------------------------------
 here's a story,  of a lovely lady, who was bringing up 3 very lovely  
girls.


E|-----------------------------|------------------|-----------------------
B|-----------------------------|------------------|-----------------------
G|-----------------------------|------------------|-----------------------
D|---0-2-2-2-2-2---------------|-0-2-0------------|-2-0-------------------
A|-4---------------------------|-------4----------|-----4-2-0-2-----------
E|-----------------------------|------------------|-----------------------
 all of them had hair of gold, like their mother. the youngest one in  
curls.
    
   
    
E|--------------------------------------------|---------------------------
B|--------------------------------------------|---------------------------
G|------------------------------------------ -|---------------------------
D|-2-0-------------0-2-0----------------------|-0-2-0-----------0-2-0-----
A|-----4-4-4-4-4-4----------------------------|-------4---------------0---
E|--------------------------------------------|---------------------------
  that's the way we all became the brady bunch  the brady bunch, the brady  
bunch
Tap to rate this tab
# A B C D E F G H I J K L M N O P Q R S T U V W X Y Z