Song name
# A B C D E F G H I J K L M N O P Q R S T U V W X Y Z

Misc Soundtrack - Its Always Sunny In Philadelphia - Troll Toll tab

	Troll Toll, added the verse and ending chords onto this one

From the episode The Nightman Cometh; Season 4, Episode 13

The Troll Toll song from Its Always Sunny in Philadelphia, sung by Danny Devito playing 
the Troll.

-------------------------------------------------|
-------------------------------------------------|
-------------------------------------------------|
----7------------------7-------------------------|
---------7-6-7-8----------7-6-7-8----------------|
-5---------------6--5-------------6-5------------|


You got to pay the troll toll
if you want the baby boy's soul
you gots ta pay the troll toll to get in
If you want the baby boy's soul
You got to pay the troll toll
you gots to pay the troll toll to get in
-------------------------------------------------------------|
-------------------------------------------------------------|
-------------------------------------------------------------|
-------------------------------------------------------------|
---------5-7-8-5---3--2--0-----------5-7-8-5----3--2-0-------|
-5-7-8-5---------------------5-7-8-5-------------------------|
(this plays over "you got to pay the...")

D      D
Troll Toll
          (what did you say)
E      E
Troll Toll
          (hey hey hey)
---9----9---|
---10---10--|
---9----9---|
---7----7---|
------------|
------------|
 A     A
Troll Toll
Tap to rate this tab
 
# A B C D E F G H I J K L M N O P Q R S T U V W X Y Z