Misc Soundtrack - Pirates Of The Carribean - Davy Jones Theme tab

(Let it ring as much as you can!!!)
E---------0--1-----3--5-------6-5---------5-----6--8-----10---5-----3--|
B---3-----------3--------3---------3---------3--------5----------3-----|
G------2-----2--------------------2----------------5-------------------|
D---0-----------------0---------0---------0-------------------0--------|
A----------------------------------------------------------------------|
E----------------------------------------------------------------------|

E---5------5--6-----8--5-----1--3-----5---1--------0--------------0-------------|
B------3---------5--------3--------2------------3--------1-----------3---(1--3)-|
G-------------0------------------------------2-----0--------2----------2-----2--|
D---0------------------0------------------0-----------2--------2-----0-------0--|
A-------------------------------0---------------------------0-------------------|
E-------------------------------------------------------------------------------|
Tap to rate this tab
 
# A B C D E F G H I J K L M N O P Q R S T U V W X Y Z