Misc Soundtrack - Schindlers List Theme tab

This is the middle part of the Schindler's List theme. At least I think it is.


E|---0---1-0---------------------------------0---1-0------|
B|-----3------0--1-3---1-3-0------0------------3----------|
G|----------------------------2-1---2---------------------|
D|--------------------------------------------------------|
A|--------------------------------------------------------|
E|--------------------------------------------------------|



E|--------------------------------------------------------|
B|--0--1-3----------------------4-------------------------|
G|-----------------------2--4-5---------------------------|
D|------------0-2-3--3-5----------------------------------|
A|--------------------------------------------------------|
E|--------------------------------------------------------|
Tap to rate this tab
 
# A B C D E F G H I J K L M N O P Q R S T U V W X Y Z