Song name
# A B C D E F G H I J K L M N O P Q R S T U V W X Y Z

Misc Soundtrack - Pirates Of The Caribbean - Hoist The Colours tab

The other tabs on this site only have the second half tabbed out, here is the whole thing:

"Hoist the Colours"
Composed By Hans Zimmer
For Pirates of the Caribbean: At World's End


Solo Vocals:

----------------------------------------------1--1--1>>3--1--0--------|
-------1--1--1--1-----1--1--2--1--1-----------------------------------|
----------------------------------------------------------------------|
----3-------------------------------3------3--------------------------|
----------------------------------------------------------------------|
----------------------------------------------------------------------|

--------3--2--3--5--3--0-------------3>>5>>3-----------1--------------|
--------------------------1--1-------------------1--4-----------------|
----------------------------------------------------------------------|
-----3----------------------------------------------------------------|
----------------------------------------------------------------------|
----------------------------------------------------------------------|


Group Vocals:

----------------------------------------------------------------------|
----------------------------------------------------------------------|
---------------------------------1>>0-----0---------------------------|
------3------3--3----------3--3--------3------------------------------|
--------3----------3--3-----------------------------------------------|
----------------------------------------------------------------------|


----------------------------------------------------------------------|
----------------------------------------------------------------------|
-----0------0---0-------------0---1-----------------------------------|
------------------------------------------1---3-----------------------|
--------3----------3---3--------------3-------------------------------|
----------------------------------------------------------------------|


Tabbed by Sam Heavenrich
Tap to rate this tab
 
# A B C D E F G H I J K L M N O P Q R S T U V W X Y Z