Song name
# A B C D E F G H I J K L M N O P Q R S T U V W X Y Z

Misc Soundtrack - Inception - Waiting For A Train tab

Tabbed by: Gooch-36
E-mail: symbioticlove36@gmail.com



So yeah, im not ENTIRELY sure about 1 note,
I mean it sounds correct, but like I said... im not sure.
Everything else is 100% correct.

I'm sure when you play it you probally wont notice, but if you do, let me know so I can fix it :)


I'll put a question mark next to the note that im not sure about


It starts at 00:19

E---------------------------|
B---------------------------|
G-----9~--------------------|
D---7-----------------------|
A---------------------------|
E---------------------------|

E---------------------------|
B---------------------------|
G-----9-10------------------|
D---7?------8~--------------|
A---------------------------|
E---------------------------|

E---------------------------|
B---------------------------|
G---------9~----------------|
D---7-5-7-------------------|
A---------------------------|
E---------------------------|

E---------------------------|
B---------------------------|
G-----9-10------------------|
D---7?------8~--------------|
A---------------------------|
E---------------------------|

E---------------------------|
B-----10~-------------------|
G---9-----------------------|
D---------------------------|
A---------------------------|
E---------------------------|

E---------------------------|
B---------8~----------------|
G---9-7-9-------------------|
D---------------------------|
A---------------------------|
E---------------------------|

E---------------------------|
B---------10~---------------|
G---9-7-9-------------------|
D---------------------------|
A---------------------------|
E---------------------------|

E---------------------------|
B------6~-------------------|
G---9-----------------------|
D---------------------------|
A---------------------------|
E---------------------------|

...Stupid note.
Tap to rate this tab
 
# A B C D E F G H I J K L M N O P Q R S T U V W X Y Z