Misc Soundtrack - Spy Kids 3 Theme tab

Legend:
h= hammer on
p= pull off
b= bend
r= release bend
/= slide up
\= slide down
x= mute
~= vibrato


  Classical guitar
e|---------------------------------------------|
B|---------------------------------------------|
G|---------------------------------------------|
D|-----4--5--7--(7)/9~---------4--5-(7)/9~----|
A|--7---------------------6--------------------|
E|---------------------------------------------|

e|---------------------------------------------|
B|---------------------------------------------|
G|-----------4--(5)/7--6--4--------------------|
D|-----4--5------------------7--5--4--5--7--4~-|
A|--7------------------------------------------|
E|---------------------------------------------|
Tap to rate this tab
 
# A B C D E F G H I J K L M N O P Q R S T U V W X Y Z