Song name
# A B C D E F G H I J K L M N O P Q R S T U V W X Y Z

Misc Soundtrack - Saw Theme tab

Hi, this is my first tab so, enjoy...
by the way this is my favorite movie so, thats why this is my first tab...

Please dont copy this tab, this is my own work.
By: disposablezeros (disposablezeros@hotmail.com)

This is only one form of playing it...

e |-------------------------------------------------------------------------|
b |-------------------------------------------------------------------------|
g |--------7---9---10------7---9---10---------9---7---9---10---12-----------|
d |--------7---9---10------7---9---10---------9---7---9---10---12-----------|
a |-------------------------------------------------------------------------|
D |-------------------------------------------------------------------------|

This is another form of playing it just that in a different tone...

e |---------------------------------------------------------------------|
b |---------------------------------------------------------------------|
g |--------0---2---3------0---2---3---------2---0---2---3---5-----------|
d |--------0---2---3------0---2---3---------2---0---2---3---5-----------|
a |---------------------------------------------------------------------|
D |---------------------------------------------------------------------|

This is another form of playing it just that in a different tone...

e |----------------------------------------------------------------------|
b |----------------------------------------------------------------------|
g |--------5---7---8------5---7---8---------7---5---7---8---10-----------|
d |--------5---7---8------5---7---8---------7---5---7---8---10-----------|
a |----------------------------------------------------------------------|
D |----------------------------------------------------------------------|

I hope this tab helps...
Enjoy...
Tap to rate this tab
 
# A B C D E F G H I J K L M N O P Q R S T U V W X Y Z