Misc Soundtrack - Braveheart Theme tab

-------------------------------------------------------------------------------
			              Braveheart Theme - Misc Soundtrack (James Horner)
-------------------------------------------------------------------------------
Tabbed by: J.S.L
Email: jonas.lindstroem@yahoo.se

Tuning: Standard

e|---------------------------------------------------------------------------|
B|---------------------------------------------------------------------------|
G|----13-15~~-18-17--17h18p17-15-13--13/15-----------------------------------|
D|-15--------------------------------------15~~------------------------------|
A|---------------------------------------------------------------------------|
E|---------------------------------------------------------------------------|

e|---------------------------------------------------------------------------|
B|---------------------------------------------------------------------------|
G|----13-15~~-18-17--17h18p17-15-13--13/15~~---------------------------------|
D|-15------------------------------------------------------------------------|
A|---------------------------------------------------------------------------|
E|---------------------------------------------------------------------------|

e|---------------------------------------------------------------------------|
B|---------------------------------------------------------------------------|
G|----13-15~~-18-17--17h18p17-15-13--13/15-----------------------------------|
D|-15--------------------------------------15~~------------------------------|
A|---------------------------------------------------------------------------|
E|---------------------------------------------------------------------------|

e|---------------------------------------------------------------------------|
B|---------------------------------------------------------------------------|
G|----13-15~~-18-17--17h18p17-15-13--13/15~~~~~~-----------------------------|
D|-15------------------------------------------------------------------------|
A|---------------------------------------------------------------------------|
E|---------------------------------------------------------------------------|



************************************

| /   slide up
| \   slide down
| h   hammer-on
| p   pull-off
| ~   vibrato
| +   harmonic
| x   Mute note
| b   Bend
| pb  Pre-bend
| br  Bend release
| pbr Pre-bend release
| brb Bend release bend

************************************
Tap to rate this tab
 
# A B C D E F G H I J K L M N O P Q R S T U V W X Y Z