Song name
# A B C D E F G H I J K L M N O P Q R S T U V W X Y Z

Misc Soundtrack - Schindlers List Theme tab

\---Song:-Schindler's-List------------\
 \---Composer:-John-Williams-----------\
  \---Transcription-by:Christian Liang--\
  /---E-Mail:christian.liang@gmail.com--/
 /---http://www.chrisliang.com---------/
/---Enjoy!----------------------------/

==========================================================================
           Schindler's List Theme by John Williams (1930-1993)
==========================================================================

Music by John Towner Williams (composer)
Transcribe by John Williams (guitarist)

A tuned down to G (1 whole step)
E tuned down to C (2 whole step)

Time Signature: 4/4
Key: G minor

[1]                                  III............
E|---------------------------------||--------------------------------|
B|---------------------------------||3-------3-----------------------|
G|---------------------------------||3---------------8---7---3-------|
D|-0==============================-||5---5-------5---------------0---|
G|---------------------------------||0==============================-|
C|---------------------------------||--------------------------------|
   | | | | | | | | | | | | | | | |   | | | | | | | | | | | | | | | | 
   |       |       |       |         |       |       |       |
L                                    1   3   1   3   4   3   2
                                     1
                                     3


[3]            I...III.....II......  III.............................
E|---------------------------------|---------------------------------|
B|-------------1---3---------------|-3-------3-------6---4---3-------|
G|-3-------3---2---5---3---2-------|-3---------------3-----------5---|
D|-1-------1-------3-------4-------|-5---5-------5-------------------|
G|-----5-----------3======---------|-0==============-5==============-|
C|-0======-5---------------2======-|---------------------------------|
   | | | | | | | | | | | | | | | |   | | | | | | | | | | | | | | | | 
   |       |       |       |         |       |       |       |
L  2   4   2   1   1   1   1         1   3   1   3   4   2   1   4
   1       1   2   4       3         1               1
           4       1       1         3               3
                   1

[5]                        I...
E|---------------------------------|---------------------------------|
B|-------------1---4---3---1-------|-1-------1-------3---1-------1---|
G|---------2-------------------3---|-0---------------0-------3-------|
D|-3---1-----------4---3---1---0---|-1---1-------1---0-------4-------|
G|---------2======-3---------------|-2===============----------------|
C|---------------------------------|-----------------2==============-|
   | | | | | | | | | | | | | | | |   | | | | | | | | | | | | | | | | 
   |       |       |       |         |       |       |       |
L  3   1   3   1   4   4   1   4     2   1   2   1   4   1   3   1
           2       3   3   1         1               2       4
                   2                 3

[7]III....................
E|---------------------------------|---------------------------------|
B|-3======================---------|-1-------1-------3---1-----------|
G|-3======================-0-------|-0---------------0-------3---2---|
D|-7-------5---5---4-----------0---|-1---1-------1---0-------4-------|
G|-0==============================-|-2===============----------------|
C|---------------------------------|-----------------2==============-|
   | | | | | | | | | | | | | | | |   | | | | | | | | | | | | | | | | 
   |       |       |       |         |       |       |       |
L  1       3   3   2                 2   1   2   1   4   1   3   1
   1                                 1               2       4
   4                                 3

[9]                II..............                          II......
E|---------------------------------|---------------------------------|
B|---------------------------------|-----------------3---1-----------|
G|-0-----------0---2==============-|-3-------3-------0-------3---2---|
D|-0---------------5-------4-------|-1---------------0-------4-------|
G|-3-------3-------2==============-|-5---5-------5---2======---------|
C|-3==============-2==============-|-0===============--------2======-|
   | | | | | | | | | | | | | | | |   | | | | | | | | | | | | | | | | 
   |       |       |       |         |       |       |       |
L  3       3       1       3         2   4   2   4   4   1   2   1
   2               4                 1               2       3
                   1                 4                       1
                   1

[11]       III.....................
E|-----------------3==============-|----10-8-11-10---5-----6-8-------|
B|-------------3---3==============-|----11------11-------4-------8---|
G|-0-------3-------3==============-|---------------------5-------8---|
D|-----0==========-0==============-|---------------------------------|
G|-0==============-0==============-|-0==============-0==============-|
C|---------------------------------|---------------------------------|
   | | | | | | | | | | | | | | | |   | | | | | | | | | | | | | | | | 
   |       |       |       |         |       |       |       |
L          1   1   1                     2 1 4   2   3   1 4 4   3                            
                   1                     3       3       2       2
                   1

[13]           II..........III.....
E|-----6-8-5---3-2-5-------3-------|----10-8-13--11--5-----6-8-------|
B|-----4---4---------------------3-|----11---10----------4-------8---|
G|-------------2---5-------3-----3-|-----------------------------8---|
D|---------------------------------|---------------------------------|
G|--0=============-0==============-|-0==============-0==============-|
C|---------------------------------|---------------------------------|
   | | | | | | | | | | | | | | | |   | | | | | | | | | | | | | | | | 
   |       |       |       |         |       |       |       |
L      2 4 2   2 1 4       1     1       2 1 4   3   3   1 4 4   3
       1   1   1   3       1     1       3   2           2       2
                               
[15]I..........                           
E|---------------1-3---5-6-9=====-||-10------10------11--10--6-------|
B|-----1-3-4---4-----------8=====-||-11------11------11----------3---|
G|-------------0-----------6=====*||-12--12------12------------------|
D|-----1-------------------------*||-0-----------------------0======-|
G|-2=======--------0======-8=====-||-0==============-0=======--------|
C|--------------------------------||---------------------------------|
   | | | | | | | | | | | | | | | |   | | | | | | | | | | | | | | | | 
   |       |       |       |         |       |       |       |
L  2   1 3 4   4 1 3   1 2 4         1   3   1   3   1   1   4   1
       1                   3         2       2       2       
                           1         3                      
                           2

[17]               X.......
E|-6-------6---8---10--------------|-10------10------13--11--10--8---|
B|-4-------4-------13--11--10------|-11------11------11--------------|
G|-5---5-----------10------11------|-12--12------12------12--10--8---|
D|-------------7---10------0======-|-0-------0-------13--------------|
G|-----------------10--------------|-0==============-----------------|
C|-0======-5======-10======--------|-----------------0==============-|
   | | | | | | | | | | | | | | | |   | | | | | | | | | | | | | | | | 
   |       |       |       |         |       |       |       |
L  4   2   4   4   1   2   2         1   3   1   3   4   1   4   4
   1       1   2   4       3         2       2       1   2   3   3
   2       2       1                 3               3
                   1
                   1

[19]V.......                         VIII............             
E|---------5---8---11--10--8---6---|-8-------8-------10--8---6---8---|
B|-6-------------------------------|-8-------8-------8-------7-------|
G|-----8-----------11--10--8---7---|-8---8-------8---7-------5-------|
D|---------7=======----------------|-----------------0==============-|
G|---------------------------------|---------------------------------|
C|-5=======--------10===-----------|-9===============----------------|
   | | | | | | | | | | | | | | | |   | | | | | | | | | | | | | | | | 
   |       |       |       |         |       |       |       |
L  2   3   1   4   4 / 4   4   2     1   1   1   1   4   3   2   4 
   1       3       3 / 3   3   3     1       1       2       3
                   2                 1               1       1
                                     2

[21]                                 VIII............        V.......
E|-10==============----------------|-8-------8-------10--8---6---5---|
B|-10------8---8---7---------------|-8-------8-------8-------7-------|
G|---------------------8-----------|-8---8-------8---7-------5-------|
D|-8==============-0======-12--12--|-----------------0==============-|
G|-------------------------10=====-|---------------------------------|
C|---------------------------------|-9===============----------------|
   | | | | | | | | | | | | | | | |   | | | | | | | | | | | | | | | | 
   |       |       |       |         |       |       |       |
L  4       2   2   1   2   4   4     1   1   1   1   4   3   2   1
   3                       1         1       1       2       3
   1                                 1               1       1
                                     2
                                     
[23]                       II......                  VIII....
E|-3==============-5======---------|-6-------6-------10--8-----------|
B|-3-------3---3/4-4======-3======-|-4-------4-------8-------11--10--|
G|-------0---0-----0======-2======-|-----5-------5---8-------11------|
D|-----0-------------------4======-|-------------------------10------|
G|---3-------------2======---------|---------------------------------|
C|-3===============--------2======-|-0==============-9======-0======-|
   | | | | | | | | | | | | | | | |   | | | | | | | | | | | | | | | | 
   |       |       |       |         |       |       |       |
L  4 2     3   3 3 4       2         4   2   4   2   4   1   4   2
   3               3       1         1       1       1       3
   1               1       3                         1       1
                           1                         2       

[25]                                                 V...VIII.VII....
E|-3-------------------------------|-3---------------------------10--|
B|-6---4---3-------4-------3-------|---------------------8---11------|
G|-0-----------5---0-------5-------|-3---------------7-------7-------|
D|-------------------------4-------|-------------8---5---8-----------|
G|-0======-2=======----------------|-0-------3---7-------------------|
C|-----------------0======-2======-|-----2---------------------------|
   | | | | | | | | | | | | | | | |   | | | | | | | | | | | | | | | | 
   |       |       |       |         |       |       |       |
L  1   2   2   4   2       2         4   1   2   3   3   1   4   3  
   4       1               4         3           2   1   1   1 
                           3
                           1

[27]                              
E|-15=============================-|
B|-11=============================-|
G|-12=============================-|
D|-0==============================-|
G|-0==============================-|
C|---------------------------------|
   | | | | | | | | | | | | | | | |   
   |       |       |       |         
L  4                   
   1                       
   2                       
                           

======
Legend
======
Left                       Right                 
p = pull off               p = pulgar = thumb     
h = hammer on              i = indice = index     
/ = slide                  m = medio = middle     
= = suspend/hold Note      a = anular = ring      
V = Barre at fret 5
Tap to rate this tab
 
# A B C D E F G H I J K L M N O P Q R S T U V W X Y Z