Song name
# A B C D E F G H I J K L M N O P Q R S T U V W X Y Z

Misc Soundtrack - Gladiator - Figurines tab

Standard Tuning (everynote sounds like its tremelo picked)

-10-------------------------------------------|
----------------------10------------------12--|
----9----------9---11------------------11-----|
-------12-11-------------12--11-9-------------|
----------------------------------------------|
----------------------------------------------|


-10-------------------------------------------|
----------------------------------------------|
----9-----------------------------------------|
-------12-11---11--9------9-------------------|
----------------------12----------------------|
----------------------------------------------|

Enjoy :)
Feedback welcome at ronnies30@hotmail.com
Tabbed by Ronnies30
Tap to rate this tab
 
# A B C D E F G H I J K L M N O P Q R S T U V W X Y Z