Song name
# A B C D E F G H I J K L M N O P Q R S T U V W X Y Z

Misc Soundtrack - Inception - Dream Is Collapsing tab

Intro to Dream is Collapsing from Inception.
Standard Tuning except tune low E half step down to E flat/D sharp. =D


|--3-3---3-3-3---3---2-2---2-2-2---2---3-3---3-3---3-2-2---2-2---2---2------------|
|---------------------------------------------------------------------------------|
|---------------------------------------------------------------------------------|
|---------------------------------------------------------------------------------|
|--------------------1---1-1-----1---1-----------------------2---2-2---2---2---2--|
|--4---4-4-----4---4-------------------0---0-0---0---0----------------------------|


3-3---3-3-3---3---2-2---2-2-2---2---3-3---3-3----5-5-5--6-6-6----------------|
-----------------------------------------------------------------------------|
-----------------------------------------------------------------------------|
4---4-4-----4---4-------------------0---0-0---0---0--------------------------|
--------------------1---1-1-----1---1----------------------2---2-------------|
-----------------------------------------------------------------------------|
Tap to rate this tab
 
# A B C D E F G H I J K L M N O P Q R S T U V W X Y Z