Misc Soundtrack - Oceans 12 - Yen On A Carousel tab

I gotta say, this is an amazing song and I find it strange that there are no tabs yet.

here's the bass intro riff:

G|--------------------------------------------------|
D|-----3-3------1--3-------------3-3------1---------|repeat
A|----------1h3-----------------------1h3----3------|
E|--1-------------------------1---------------------|

here's the guitar riff
there are two ways to play it, here are both of them, figure out for yourself which one 
you prefer. the notes are the same, by the way:
version 1
e|-------------------------------------------------------------------------|
B|-------------------------------------------------------------------------|
G|-------10-10------8--10---5--5--5--5----------10-10-------8-10---5-------|
D|--------------8h10--------8b-8b-8b-8b8(6)------------8h10--------8b--8~--|
A|---/8--------------------------------------/8----------------------------|
E|-------------------------------------------------------------------------|


version 2
e|-------------------------------------------------------------------------|
B|--------------------------1--1--1--1-------------------------------1-----|
G|-------10-10------8--10---3b-3b-3b-3b3(1)---------10-10------8-10--3b-3~-|
D|--------------8h10-------------------------/3------------8h10------------|
A|---/8--------------------------------------------------------------------|
E|-------------------------------------------------------------------------|

That's pretty much it, repeat that for the rest of the song.

Tabbed by vagelier

You're welcome ;)
Tap to rate this tab
 
# A B C D E F G H I J K L M N O P Q R S T U V W X Y Z