Misc Soundtrack - Green Rose - Jericho Rosales - Bumuhos Man Ang Ulan tab

********THIS IS MY FIRST TAB*********

Artist:Jericho Rosales
Title:Bumuhos Man Ang Ulan (Green Rose OST)


Tabbed by: JINRI F. LAYESE a.k.a BUWAD-PEPE

*Tuning is in Standard*

INTRO:

e[----3--------------3----7--8--------------------/
B[-5--------3---5---------------5-----5-----3-----/
G[-5-----5------5--5----5-------5--5-----5--------/
D[------------------------------------------------/
A[------------------------------------------------/
E[------------------------------------------------/

\----3--------------3----7--8----15---------------/
\-5--------3---5----------------------------------/
\-5-----5------5--5----5--------------------------/
\-------------------------------------------------/
\-------------------------------------------------/
\-------------------------------------------------/

\------------ -1--------/
\-------1---------------/
\-2--------2-------2----/
\----1------------------/
\-----------------------/
\-1---------------------/

\---------------0-------/
\-------3---------3-----/
\-0---------0-------0---/
\----0----------------0-/
\-----------------------/
\-3---------------------/

\------------ -1--------/
\-------1---------------/
\-2--------2-------2----/
\----1------------------/
\-----------------------/
\-1---------------------/

\-3---]
\-3---]
\-----]
\-----]
\-2---]
\-3---]


C    G
Ooooh...
Am   F
Ooooh...


(C-G-Am-F-C-Am-F-G)
Magtatagpo rin tayo
Magkaiba man ang mundo
Magkalayo man ngayon,
Marami mang hadlang.
Magtatagpo din tayo
Alam kong ako'y lumisan
Hindi din kita iniwan
Kahit kailan


(C-G-Am-F-C-Am-F-G)
At hahagkan kita
Nang walang hanggan
Bumuhos man ang ulan
Nang walang hanggan
At yayakapin kita
Nang walang hanggan
Bumuhos man ang ulan
Na walang hanggan
Bumuhos man ang ulan


(F-G)
Hindi na, hindi na
Bumuhos man ang ulan
Hindi na, hindi na
Magpakailan man



(D-A-Bm-G) *play chord D on the last word(ulan)
At hahagkan kita
Nang walang hanggan
Bumuhos man ang ulan
Nang walang hanggan
At yayakapin kita
Nang walang hanggan
Bumuhos man ang ulan
Na walang hanggan
Bumuhos man ang ulan

OUTRO:

e[----3--------------3----7--8--------------------/
B[-5--------3---5---------------5-----5-----3-----/
G[-5-----5------5--5----5-------5--5-----5--------/
D[------------------------------------------------/
A[------------------------------------------------/
E[------------------------------------------------/

\----3--------------3----7--8----15---------------]
\-5--------3---5----------------------------------]
\-5-----5------5--5----5--------------------------]
\-------------------------------------------------]
\-------------------------------------------------]
\-------------------------------------------------]

  
              *****I'M NOT REALLY SURE WITH THIS TAB*****
*****JUST PLAY WITH THOSE CHORDS IF YOU'RE NOT CONVINCED WITH THIS TAB******



            *****THANKS AND KEEP THE IRIE VIBE COMING.*****
                    *****I HOPE YOU LIKED IT.*****


Tap to rate this tab
 
# A B C D E F G H I J K L M N O P Q R S T U V W X Y Z