Misc Soundtrack - Power Rangers Turbo Theme tab

I've been looking over the internet but I can't find the artist for this theme, to me it 
sounds like the same band as Go Go Power Rangers, The Mighty Raw, but I'm not that sure 
about it, so if anyone out there knows please share it =D

No let's get to it:


Power Slide for Engine Start Sound


Power Intro
e|-----------------------|
B|---9---7---6-----------|
G|---9---7---6-----------|
D|---------------7---9---| x3
A|---------------7---9---|
E|00--00--00--00--00-----|<-Muted

GoooOOO
e|-----------------|
B|--5------7-------|
G|--5------7-------|
D|--5------7-------|
A|-----------------|
E|-----------------|

     Go!               Power Rangers Turbo!
e|-----------------------------------|
B|----9----9-7-----7-6----6----------|
G|-------9-------7------7---7---9----|
D|-----------------------------------| x3
A|-----------------------------------|
E|-----------------------------------|


GoooOOO
e|-----------------|
B|--5------7-------|
G|--5------7-------|
D|--5------7-------|
A|-----------------|
E|-----------------|


       Oh Oh Oh Oh Oh Oh Oh Oh Oh Oh Oh Oh Oh Oh Oh Oh O-Oh--------|
e|-----------------------------------------------------------------|
B|-----8--------8--7-----------------------------------------------|
G|--------7-----------8-----8--9--5-----9--7--------7--7h8---------|
D|-----------9-----------9-----------5--------9--5-----------------|
A|-----------------------------------------------------------------|
E|-----------------------------------------------------------------|


Power Slide


    Migh ty En gines Roar! etc
e|-----------------------|
B|---9---7---6-----------|
G|---9---7---6-----------|
D|---------------7---9---| x3
A|---------------7---9---|
E|-----------------------|


     Go!               Power Rangers Turbo!
e|-----------------------------------|
B|----9----9-7-----7-6----6----------|
G|-------9-------7------7---7---9----|
D|-----------------------------------| x3
A|-----------------------------------|
E|-----------------------------------|


        (Go  Go   Po  wer    Ran   gers!)
e|----------------------------------------------|
B|----------------------------------------------|
G|--------9---9----7---9-----12-----9-----------|
D|--------9---9----7---9-----12-----9-----------|
A|----------------------------------------------|
E|----------------------------------------------|


e|---------------------------------------------------------------|
B|-----8--------8--7---------------------------------------------|
G|--------7-----------8-----8--9--5-----9--7--------7--7h8-------|
D|-----------9-----------9-----------5--------9--5---------------|
A|---------------------------------------------------------------|
E|---------------------------------------------------------------|


Shift Into Turbo!

    Tar get fixed on lock! etc
e|-----------------------|
B|---9---7---6-----------|
G|---9---7---6-----------|
D|---------------7---9---| x3
A|---------------7---9---|
E|-----------------------|


     Go!               Power Rangers Turbo!
e|-----------------------------------|
B|----9----9-7-----7-6----6----------|
G|-------9-------7------7---7---9----|
D|-----------------------------------| x3
A|-----------------------------------|
E|-----------------------------------|

GoooOOO
e|-----------------|
B|--5------7-------|
G|--5------7-------|
D|--5------7-------|
A|-----------------|
E|-----------------|


       Oh Oh Oh Oh Oh Oh Oh Oh Oh Oh Oh Oh Oh Oh Oh Oh O-Oh--------|
e|-----------------------------------------------------------------|
B|-----8--------8--7-----------------------------------------------|
G|--------7-----------8-----8--9--5-----9--7--------7--7h8---------|
D|-----------9-----------9-----------5--------9--5-----------------|
A|-----------------------------------------------------------------|
E|-----------------------------------------------------------------|


Power Slide

Guitar
e|-----------------------------------|
B|----9----9-7-----7-6----6----------|
G|-------9-------7------7---7---9----|
D|-----------------------------------| x3
A|-----------------------------------|
E|-----------------------------------|


     Go!               Power Rangers Turbo!
e|-----------------------------------|
B|----9----9-7-----7-6----6----------|
G|-------9-------7------7---7---9----|
D|-----------------------------------| x3
A|-----------------------------------|
E|-----------------------------------|


e|-----------------|
B|--5------7-------|
G|--5------7-------|
D|--5------7-------|
A|-----------------|
E|-----------------|


   Shift in  to High Gear! etc
e|-----------------------|
B|---9---7---6-----------|
G|---9---7---6-----------|
D|---------------7---9---| x3
A|---------------7---9---|
E|-----------------------|


     Go!               Power Rangers Turbo!
e|-----------------------------------|
B|----9----9-7-----7-6----6----------|
G|-------9-------7------7---7---9----|
D|-----------------------------------| x3
A|-----------------------------------|
E|-----------------------------------|


        (Go  Go   Po  wer    Ran   gers!)
e|----------------------------------------------|
B|----------------------------------------------|
G|--------9---9----7---9-----12-----9-----------|
D|--------9---9----7---9-----12-----9-----------|
A|----------------------------------------------|
E|----------------------------------------------|



       Oh Oh Oh Oh Oh Oh Oh Oh Oh Oh Oh Oh Oh Oh Oh Oh
e|-----------------------------------------------------|
B|-----8--------8--7-----------------------------------|
G|--------7-----------8-----8--9--5-----9--7--------7--|
D|-----------9-----------9-----------5--------9--5-----|
A|-----------------------------------------------------|
E|-----------------------------------------------------|


     Go!               Power Rangers Turbo!
e|-----------------------------------|
B|----9----9-7-----7-6----6----------|
G|-------9-------7------7---7---9----|
D|-----------------------------------| x3
A|-----------------------------------|
E|-----------------------------------|


Finish on Em




Power Rangers FTW
Tap to rate this tab
 
# A B C D E F G H I J K L M N O P Q R S T U V W X Y Z