Song name
# A B C D E F G H I J K L M N O P Q R S T U V W X Y Z

Misc Soundtrack - Beverly Hills 90210 Theme tab

Misc Soundtrack
Beverly Hills 90210 Theme
TV Themes
Tuning: Standard
Transcribed by Soch H.

Intro:
|----------------------------------------------------------------|
|----------------------------------------------------------------|
|-6--6--8--8------------------6--6--8--8-------------6----8-6----|
|-6--6--8--8----6--6--8--8----6--6--8--8----6--6---8-6-8--8-6----|
|-4--4--6--6----6--6--8--8----4--4--6--6----6--6---8---8---------|
|---------------4--4--6--6------------------4--4-----------------|

|----------------------------------|
|----------------------------------|
|-6--6--8--8------------6----8-----|
|-6--6--8--8----6--6--8-6-8--8-----|
|-4--4--6--6----6--6--8---8--------|
|---------------4--4---------------|

Main Theme:
|-----------------------------10-11-13--13----------------10-11--|
|----11-13-13b15~-------11-13--------------11~------11-13--------|
|-10-----------------10--------------------------10--------------|
|----------------------------------------------------------------|
|----------------------------------------------------------------|
|----------------------------------------------------------------|

|-13--13--11-11-10------------------13b15r--11-10-11-10----------|
|------------------13~---11p10-11~----------------------11-------|
|----------------------------------------------------------10~---|
|----------------------------------------------------------------|
|----------------------------------------------------------------|
|----------------------------------------------------------------|

|-----------------------------10-11-13--13----------------10-11--|
|----11-13-13b15~-------11-13--------------11~------11-13--------|
|-10-----------------10--------------------------10--------------|
|----------------------------------------------------------------|
|----------------------------------------------------------------|
|----------------------------------------------------------------|

|-13s15-13--11-11-10------------------------------------------|
|--------------------13~---11p10-11~--------------------------|
|-----------------------------------use whammy bar------------|
|-------------------------------------------------------------|
|-------------------------------------------------------------|
|-------------------------------------------------------------|

Horn Solo:
|-16--15-15-------------------------------------------|
|-----------18--18--16--16--15-16-18------------------|
|------------------------------------17p15-17-15~-----|
|-----------------------------------------------------|
|-----------------------------------------------------|
|-----------------------------------------------------|

|-/16--15-15----------------------------|
|------------18--18--16--16--18-18------|
|---------------------------------------|
|---------------------------------------|
|---------------------------------------|
|---------------------------------------|

Theme:
|--------------------------------------------------------------------|
|-------------------------6----6b6.5---------14b16-13b14-11-11-11~\--|
|-3--6--6-------8b10rp6---6----6b6.5---------------------------------|
|-3--6--6--6------------8----8-------8~\-----------------------------|
|-1--4--4--6---------------------------------------------------------|
|----------4---------------------------------------------------------|

|-15b17-15b17--13--17b19~~--------------------------16-18~--------|
|-----------------------------------------14--16-18---------------|
|--------------------------------13--15---------------------------|
|-----------------------------13---13--13-------------------------|
|-----------------------------------------------------------------|
|-----------------------------------------------------------------|

|-10--11--13-13------10--11--13-13--11--10--11-13--13--11-11-10-------------|
|-11--13--15-15------11--13--15-15--13--11----------------------13-11p10-11-|
|---------------------------------------------------------------------------|
|---------------------------------------------------------------------------|
|---------------------------------------------------------------------------|
|---------------------------------------------------------------------------|

Outro:
|-------------------------|
|---------4---------------|
|-5b6r--3----5b6r--3~-----|
|-------------------------|
|-------------------------|
|-------------------------|

Legend:
s - slide
b - bend
r - release
~ - vibrato
p - pulloff
Tap to rate this tab
 
# A B C D E F G H I J K L M N O P Q R S T U V W X Y Z