Song name
# A B C D E F G H I J K L M N O P Q R S T U V W X Y Z

Misc Soundtrack - Sesame Street Theme tab

SONG:SESAME STREET THEME
TABBED BY: JAMES JACKSON
E-MAIL:sniper_guy69@hotmail.com

THIS IS A REALLY COOL SONG TO PLAY THE CHICKS LOVE IT.
TRY USING SOME LIGHT DISTORTION ASWELL.

E------------x----------x---------x---------x-----------x--------x-------------x---/---x---/----x-------------------------|
B------------x----------x---------x---------x-----------x--------x-------------x---/---x---/----x-------------------------|
G------------x----------x---------x---------x-----------x--------x-------------4---/---5---/----7-------------------------|
D------------x----------x---------x---------x-----------x--------x-------------2---/---3---/----5-------------------------|
A-----------10----------3--------10---------3----------10--------3-------------0---/---0---/----0-------------------------|
E------------8----------1---------8---------1-----------8--------1-------------x---/---x---/----x-------------------------|

                 "Come and play, everything?s a`ok. Friendly faces that is where we meet.

E----------------------------------------------------|-------|
B----------------------------------------------------|-------|
G----------------------------------------------------|-------|
D-----5-----7-----8-----7-----5-----3----------------|-------|
A-----3-----5-----6-----5-----3-----1---p--5---------|-------|
E-----0-----0-----0-----0-----0-----0---p--3---------|-------|

So come and tell me how to get?

E------------------------------------------------|---------|
B------------------------------------------------|---------|
G------------------------------------------------|---------|
D------------------------------5-5-5-------------|---------|    X2
A--------5----7---8---7--5-----3-3-3-------------|---------|
E--------3----5---6---5--3-----------------------|---------|

How to get to Sesame Street.

e-MAIL me with any questions or requests for other songs.
Tap to rate this tab
# A B C D E F G H I J K L M N O P Q R S T U V W X Y Z