Song name
# A B C D E F G H I J K L M N O P Q R S T U V W X Y Z

Misc Soundtrack - Jackass Theme tab

Help us improve GuitareTab! Take a short survey!
Corona by Minutemen 
(Jackass Theme)

Tabbed by Agustin Rafael P


|---------------|       \
|-5---5---2-4-5-| x2    |
|---5---5-------|       |
|---------------|       |
                        | INTRO x4
|-7---7---4-6-7-|       |
|---7---7-------| x2    |
|---------------|       |
|---------------|       /

|----------|
|-5---5----| RIFF 1 (G)
|---5---5--|        
|----------|

|-7---7----|
|---7---7--| RIFF 2 (D)
|----------|        
|----------|

|----------|
|-7---7----| RIFF 3 (Am)
|---7---7--|        
|----------|

|-4---4----|
|---4---4--| RIFF 4 (Bm)
|----------|        
|----------|


G   Bm          D
The people will survive
G          Bm     D
In their environment
Am        D             G
The dirt, scarcity, and emptiness
Bm     D
Of our South
G     Bm              D
The injustices of our greed
G   Bm           D
The practices we merit
    Am    D            G
The dirt, scarcity and emptiness
Bm     D
Of our South
G       Bm           D
I could see it in my eyes
G     Bm     D
There on the beach
Am D         G
I only had a Corona
Bm         D
Five cents deposit

Outro (slow)
G------------|
D------------|
A-5/9--9/5---|
E------------|


Agustin P. Cordoba Argentina
Related for Jackass Theme tab